Linkin Park - Lying From You Chords & Tabs

 

Lying From You Chords & Tabs

Linkin Park Chords & Tabs

Version: 8 Type: Tab 0 ratings
1 star 2 stars 3 stars 4 stars 5 stars
comments

Lying From You Tab

tabbed by high voltage

Use Tuning below,or Drop D and a half

Beginning:
C#---------------------------
G#---------------------------
E --------------------------- x3
B -xxxx-2-4-3-2-5-4-3-2-8----
F#-xxxx-2-4-3-2-5-4-3-2-8----
B -xxxx-2-4-3-2-5-4-3-2-8----

End of intro:
C#-----------------------
G#-----------------------
E -----------------------
B --2-4-3-2-5-4-3--------
F#--2-4-3-2-5-4-3--------
B --2-4-3-2-5-4-3--------

Verse:
C#-----------------------
G#-----------------------
E ----------------------- x3
B --4-4---7-7---2-2-2----
F#--4-4---7-7---2-2-2----
B --4-4---7-7---2-2-2----

C#-----------------------
G#-----------------------
E -----------------------
B --4-4---7-7-7/9-9-9----
F#--4-4---7-7-7/9-9-9----
B --4-4---7-7-7/9-9-9----
          (not exact amount
           of strokes, but
           you'll hear it)
First Chorus:
C#--------------------------------------------------------------------------
G#--------------------------------------------------------------------------
E --------------------------------------------------------------------------
B --4-4---11-11-11-7-7-7-9-9--7-7-7-2-2-2-0-0-11-11-11-7-7-7-9-9--9-9-9-2-2-
F#--4-4---11-11-11-7-7-7-9-9--7-7-7-2-2-2-0-0-11-11-11-7-7-7-9-9--9-9-9-2-2-
B --4-4-----------------------7-7-7-2-2-2-0-0---------------------9-9-9-2-2-

C#--------------------------------------------------------------------------
G#--------------------------------------------------------------------------
E --------------------------------------------------------------------------
B --4-4---11-11-11-7-7-7-9-9--7-7-7-2-2-2-0-0-11-11-11-7-7-7-9-9--9-9-9-2-2-
F#--4-4---11-11-11-7-7-7-9-9--7-7-7-2-2-2-0-0-11-11-11-7-7-7-9-9--9-9-9-2-2-
B --4-4-----------------------7-7-7-2-2-2-0-0---------------------9-9-9-2-2-

Second Chorus: (Everything stays the same till the second time around)

C#-------------------------------------------------------------------------------
G#-------------------------------------------------------------------------------
E -------------------------------------------------------------------------------
B --4-4---11-11-11-7-7-7-9-9--7-7-7-2-2-2-0-0-11-11-11-7-7-7-9-9-9-9-9-9-9-9-2-2-
F#--4-4---11-11-11-7-7-7-9-9--7-7-7-2-2-2-0-0-11-11-11-7-7-7-9-9-9-9-9-9-9-9-2-2-
B --4-4-----------------------7-7-7-2-2-2-0-0--------------------9-9-9-9-9-9-2-2-
[ Tab from: http://www.guitartabs.cc/tabs/l/linkin_park/lying_from_you_tab_ver_8.html ]
Breakdown:
C#-----------------------
G#-----------------------
E ----------------------- x3
B --2-4-3-2-5-4-3-2-7----
F#--2-4-3-2-5-4-3-2-7----
B --2-4-3-2-5-4-3-2-7----

C#-----------------------
G#-----------------------
E -----------------------
B --2-4-3-2-5-4-3--------
F#--2-4-3-2-5-4-3--------
B --2-4-3-2-5-4-3--------
(Repeat)

Final Chorus:
C#--------------------------------------------------------------------------
G#--------------------------------------------------------------------------
E --------------------------------------------------------------------------
B --4-4---11-11-11-7-7-7-9-9--7-7-7-2-2-2-0-0-11-11-11-7-7-7-9-9--9-9-9-2-2-
F#--4-4---11-11-11-7-7-7-9-9--7-7-7-2-2-2-0-0-11-11-11-7-7-7-9-9--9-9-9-2-2-
B --4-4-----------------------7-7-7-2-2-2-0-0---------------------9-9-9-2-2-

C#----------------------------------------------------------------------------------
G#----------------------------------------------------------------------------------
E ----------------------------------------------------------------------------------
B --4-4---11-11-11-7-7-7-9-9--7-7-7-2-2-2-0-0-11-11-11-7-7-7-9-9-9-9-9-9-9-9-2-2--2-
F#--4-4---11-11-11-7-7-7-9-9--7-7-7-2-2-2-0-0-11-11-11-7-7-7-9-9-9-9-9-9-9-9-2-2--2-
B --4-4-----------------------7-7-7-2-2-2-0-0--------------------9-9-9-9-9-9-2-2--2-

Like I said, the rhythm isn't correct in here, just listen to the song and work it out,
it's easy. If anything is wrong, email me and I'll fix it. Thanks.

Lyrics:
when i pretend
everything is what i want it to be
i look exactly like what you had always wanted to see
when i pretend
i can forget about the criminal i am
stealing second after second just cause i know i can / but
i can't pretend this is the way it will stay / i'm just
trying to bend the truth
i can't pretend i'm who you want me to be 
so i'm 
lying my way from you 

[no / no turning back now]
i wanna be pushed aside 
so let me go
[no / no turning back now]
let me take back my life 
i'd rather be all alone
[no turning back now]
anywhere on my own
cause i can see
[no / no turning back now]
the very worst part of you 
is me 

i remember what they taught to me
remember condescending talk of who i ought to be
remember listening to all of that and this again
so i pretended up a person who was fitting in
and now you think this person really is me and i'm
[trying to bend the truth]
but the more i push 
the more i'm pulling away 
'cause i'm 

lying my way from you 

this isn't what i wanted to be
i never thought that what i said 
would have you running from me
like this 

the very worst part of you
the very worst part of you 
is me
Comments