Linkin Park - Lying From You Chords & Tabs

 

Lying From You Chords & Tabs

Linkin Park Chords & Tabs

Version: 6 Type: Tab 0 ratings
1 star 2 stars 3 stars 4 stars 5 stars
comments

Lying From You Tab

Artist: Linkin Park
Album: Meteora
Song: Lying From You
Tuning: drop C#/Db 

Great Song, LP Rocks!!!

Intro:
e|-------------------------------------------------|
B|-------------------------------------------------|
G|-------------------------------------------------|         Repeat 4X
D|-x-xxx-0--22/1--0----3-2-1--0-/-6----------------|
A|-x-xxx-0--22/1--0----3-2-1--0-/-6----------------|
D|-x-xxx-0--22/1--0----3-2-1--0-/-6----------------|
    (w/ heavy distortion)

e|-------------|-----------|--------------------|
B|-------------|-----------|--------------------|
G|-------------|-----------|--------------------|  
D|---2--2------|----5--5---|----0--0--0---------|         Repeat 4X
A|---2--2------|----5--5---|----0--0--0---------|
D|---2--2------|----5--5---|----0--0--0---------|
then
e|-------------|-----------------------------------|
B|-------------|-----------------------------------|
G|-------------|-----------------------------------|  
D|---2--2------|----5--5--5--5-------7--7--7--7----|       
A|---2--2------|----5--5--5--5-------7--7--7--7----|
D|---2--2------|----5--5--5--5-------7--7--7--7----|

Chorus:
e|--------|---------------------------------------------|
B|--------|---------------------------------------------|
G|--------|---------------------------------------------|
D|---2--2-|---11-11-11-/--7--7--7--/--9--9--9-----------|
A|---2--2-|----x--x--x----x--x--x-----x--x--x-----------|
D|---2--2-|----9--9--9-/--5--5--5-/---7--7--7-----------|
chorus continued
e|-------------------------------------------------------
B|-------------------------------------------------------
G|-------------------------------------------------------          
D|----5-5-5-5-----0-0-0-0--------------10-10-10----------
A|----5-5-5-5-----0-0-0-0--------------10-10-10----------
D|----5-5-5-5-----0-0-0-0--------------10-10-10----------
chorus continued.
e|------------------------------------------------------------------|
B|------------------------------------------------------------------|
G|------------------------------------------------------------------|
D|--11-11-11---/---7--7--7---/---9---9---9------7-7-7-7----0-0-0----|
A|--x---x---x--/---x--x--x---/---x---x---x------7-7-7-7----0-0-0----|
D|--9---9---9--/---5--5--5---/---7---7---7------7-7-7-7----0-0-0----|
Repeat Chorus

Verse2:
e|-------------|-----------|--------------------|
B|-------------|-----------|--------------------|
G|-------------|-----------|--------------------|  
D|---2--2------|----5--5---|----0--0--0---------|         Repeat 4X
A|---2--2------|----5--5---|----0--0--0---------|
D|---2--2------|----5--5---|----0--0--0---------|
then
[ Tab from: http://www.guitartabs.cc/tabs/l/linkin_park/lying_from_you_tab_ver_6.html ]
e|-------------|-----------------------------------|
B|-------------|-----------------------------------|
G|-------------|-----------------------------------|
D|---2--2------|----5--5--5--5-------7--7--7--7----|         
A|---2--2------|----5--5--5--5-------7--7--7--7----|
D|---2--2------|----5--5--5--5-------7--7--7--7----|

Chorus :
e|--------|-----------------------------------------
B|--------|-----------------------------------------
G|--------|-----------------------------------------
D|---2--2-|---11--11-11-/--7--7--7--/--9--9--9------
A|---2--2-|----x--x--x-----x--x--x-----x--x--x------
D|---2--2-|----9--9--9-/---5--5--5-/---7--7--7------
chorus continued
e|-------------------------------------------------------
B|-------------------------------------------------------
G|-------------------------------------------------------        
D|----5-5-5-5-----0-0-0-0--------------10-10-10----------
A|----5-5-5-5-----0-0-0-0--------------10-10-10----------
D|----5-5-5-5-----0-0-0-0--------------10-10-10----------
chorus continued.
e|------------------------------------------------------------------|
B|------------------------------------------------------------------|
G|------------------------------------------------------------------|  
D|-11-11-11--/---7--7---7---/--9---9---9-------7-7-7-7----0-0-0-----|
A|-x--x--x---/---x--x--x----/--x---x---x-------7-7-7-7----0-0-0-----|
D|-9--9--9---/---5---5---5--/--7---7---7-------7-7-7-7----0-0-0-----|
Repeat intro:

e|-------------------------------------------------|
B|-------------------------------------------------|
G|-------------------------------------------------|         
D|-x-xxx-0---22/1--0----3-2-1---0-/-6--------------|            Repeat 8x
A|-x-xxx-0---22/1--0----3-2-1---0-/-6--------------|
D|-x-xxx-0---22/1--0----3-2--1--0-/-6--------------|

End with chorus 2x :
e|--------|----------------------------------------------|
B|--------|----------------------------------------------|
G|--------|----------------------------------------------|  
D|---2--2-|---11--11-11-/--7--7--7--/--9--9--9-----------|
A|---2--2-|----x--x--x-----x--x--x-----x--x--x-----------|
D|---2--2-|----9--9--9-/---5--5--5-/---7--7--7-----------|

e|-------------------------------------------------------
B|-------------------------------------------------------
G|-------------------------------------------------------         
D|----5-5-5-5-----0-0-0-0--------------10-10-10----------
A|----5-5-5-5-----0-0-0-0--------------10-10-10----------
D|----5-5-5-5-----0-0-0-0--------------10-10-10----------
chorus continued.
e|--------------------------------------------------------------------|
B|--------------------------------------------------------------------|
G|--------------------------------------------------------------------|
D|--------11-11-11-/---7--7---7--/--9---9---9----7-7-7-7-7-7--0-0-0---|
A|--------x--x--x--/---x--x--x---/--x---x---x----7-7-7-7-7-7--0-0-0---|
D|--------9--9--9--/---5---5---5-/--7---7---7----7-7-7-7-7-7--0-0-0---|
Comments