Linkin Park - Lying From You Chords & Tabs

 

Lying From You Chords & Tabs

Linkin Park Chords & Tabs

Version: 5 Type: Tab 0 ratings
1 star 2 stars 3 stars 4 stars 5 stars
comments

Lying From You Tab

   
-------------------------------------------------------------------------------
			 Lying From You - Linkin Park
-------------------------------------------------------------------------------

Tabbed by: Mike
Email: mkybrat@hotmail.com

Another amazing song from LP!! I looked at the other tab for this song
and I didnt think it was that good, so heres my own tab!
I think this is pretty accurate.


intro:

D|------| |---------------------|    |----------------------|
A|------| |---------------------|    |----------------------|
F|------| |---------------------|    |----------------------|
C|-2222-| |--1-33-2-1-4-3-2-1-7-|    |-1-33-2-1-4-3-2--2222-|
G|-2222-| |--1-33-2-1-4-3-2-1-7-|x3  |-1-33-2-1-4-3-2--2222-|
C|-2222-| |--1-33-2-1-4-3-2-1-7-|    |-1-33-2-1-4-3-2--2222-|
  
    pm                                                  pm

 
Verse:

D|------------------|    |----------------------|
A|------------------|    |----------------------|
F|------------------|    |----------------------|
C|-3-3--6-6--11-1-1-|    |-3-3--6-6-66-6-88-8-8-|
G|-3-3--6-6--11-1-1-|x3  |-3-3--6-6-66-6-88-8-8-|
C|-3-3--6-6--11-1-1-|    |-3-3--6-6-66-6-88-8-8-|


Chorus:

D|---------------------------------------------------------------------------|
A|---------------------------------------------------------------------------|
F|---------------------------------------------------------------------------|
C|-3-3--17-17-17-17-13-13-13-13-15-15-15--6-6-66-6-11-1-1-0-0----------------|
G|-3-3--17-17-17-17-13-13-13-13-15-15-15--6-6-66-6-11-1-1-0-0----------------|
C|-3-3--17-17-17-17-13-13-13-13-15-15-15--6-6-66-6-11-1-1-0-0----------------|

[ Tab from: http://www.guitartabs.cc/tabs/l/linkin_park/lying_from_you_tab_ver_5.html ]
D|---------------------------------------------------------------------------|
A|---------------------------------------------------------------------------|
F|---------------------------------------------------------------------------|
C|-17-17-17-17-13-13-13-13-15-15-15--8-8-88-8-11-1-1-------------------------|
G|-17-17-17-17-13-13-13-13-15-15-15--8-8-88-8-11-1-1-------------------------|
C|-17-17-17-17-13-13-13-13-15-15-15--8-8-88-8-11-1-1-------------------------|


D|---------------------------------------------------------------------------|
A|---------------------------------------------------------------------------|
F|---------------------------------------------------------------------------|
C|-3-3--17-17-17-17-13-13-13-13-15-15-15--6-6-66-6-11-1-1-0-0----------------|
G|-3-3--17-17-17-17-13-13-13-13-15-15-15--6-6-66-6-11-1-1-0-0----------------|
C|-3-3--17-17-17-17-13-13-13-13-15-15-15--6-6-66-6-11-1-1-0-0----------------|


D|---------------------------------------------------------------------------|
A|---------------------------------------------------------------------------|
F|---------------------------------------------------------------------------|
C|-17-17-17-17-13-13-13-13-15-15-15--8-8-88-8-11-1---------------------------|
G|-17-17-17-17-13-13-13-13-15-15-15--8-8-88-8-11-1---------------------------|
C|-17-17-17-17-13-13-13-13-15-15-15--8-8-88-8-11-1---------------------------|


Bridge:

D|--------------------|   |--------------------|
A|--------------------|   |--------------------|
F|--------------------|   |--------------------|
C|-1-33-2-1-4-3-2-1-7-|   |1-33-2-1-4-3-2-2-22-|
G|-1-33-2-1-4-3-2-1-7-|x3 |1-33-2-1-4-3-2-2-22-|
C|-1-33-2-1-4-3-2-1-7-|   |1-33-2-1-4-3-2-2-22-|

                                           pm

D|--------------------|   |--------------------|
A|--------------------|   |--------------------|
F|--------------------|   |--------------------|
C|-1-33-2-1-4-3-2-1-7-|   |1-33-2-1-4-3-2-2-22-|
G|-1-33-2-1-4-3-2-1-7-|x3 |1-33-2-1-4-3-2-2-22-|
C|-1-33-2-1-4-3-2-1-7-|   |1-33-2-1-4-3-2-2-22-|

                                           pm

Thats it, pretty easy. Have fun!
Comments