Linkin Park - Lying From You Chords & Tabs

 

Lying From You Chords & Tabs

Linkin Park Chords & Tabs

Version: 3 Type: Tab 0 ratings
1 star 2 stars 3 stars 4 stars 5 stars
comments

Lying From You Tab

Lying From You
Linkin Park
The tuning for this song is drop D with a half step down
Tabbed by Mike Kopp

/=slide

Intro/Interlude
|--------------------------------------------------------------------------|      (3 times)
|--------------------------------------------------------------------------|
|--------------------------------------------------------------------------|
|----9---8---7---6---10--9---6---7---13--13------------------------- |
|----7---6---5---4---8---7---8---5---11--11--------------------------|
|--------------------------------------------------------------------------|

Then
|--------------------------------------------------------------------------|      
|--------------------------------------------------------------------------|
|--------------------------------------------------------------------------|
|-----10--9---6----------------------------------------------------------|
|-----8---7---8---------------------------------------------------------- |
|--------------------------------------------------------------------------|

Verse
|--------------------------------------------------------------------------|      
|--------------------------------------------------------------------------|
|--------------------------------------------------------------------------|
|---2-2-------5-5-------0-0--0-0-0------------------------------------ |
|---2-2-------5-5-------0-0--0-0-0------------------------------------ |
|---2-2-------5-5-------0-0--0-0-0------------------------------------ |
[ Tab from: http://www.guitartabs.cc/tabs/l/linkin_park/lying_from_you_tab_ver_3.html ]
Chorus
|-------------------------------------------------------------------------------| (2 times)     
|-------------------------------------------------------------------------------|
|-------------------------------------------------------------------------------|
|-----------11-11-11-11/-7-7-7-7/-9-9-9-9-------------------------------|
|--2-2-2---------------------------------------------5-5-5-5--0-0--0-0-0--|
|--2-2-2---9--9--9--9--/-5-5-5-5/-7-7-7-7------5-5-5-5--0-0--0-0-0--|
|--2-2-2---------------------------------------------5-5-5-5--0-0--0-0-0--|  

|-------------------------------------------------------------------------------|      
|-------------------------------------------------------------------------------|
|-------------------------------------------------------------------------------|
|-----------11-11-11-11/-7-7-7-7/-9-9-9-9-------------------------------|
|--2-2-2---------------------------------------------7-7-7-7--0-0--0-0-0--|
|--2-2-2---9--9--9--9--/-5-5-5-5/-7-7-7-7------7-7-7-7--0-0--0-0-0--|
|--2-2-2---------------------------------------------7-7-7-7--0-0--0-0-0--|  


then at the end do this
|---------------------------------------------------------------------------------------------------|      
|---------------------------------------------------------------------------------------------------|
|---------------------------------------------------------------------------------------------------|
|-----------11-11-11-11/-7-7-7-7/-9-9-9-9---------------------------------------------------|
|--2-2-2---------------------------------------------7-7-7-7-7-7-7-7-7-7-7--0-0-0-0-0-2-2|
|--2-2-2---9--9--9--9--/-5-5-5-5/-7-7-7-7------7-7-7-7-7-7-7-7-7-7-7--0-0-0-0-0-2-2|
|--2-2-2---------------------------------------------7-7-7-7-7-7-7-7-7-7-7--0-0-0-0-0-2-2|  

That' it! Tell me what you think at mike_the_milk_man@yahoo.com
Comments