Linkin Park - Lying From You Chords & Tabs

 

Lying From You Chords & Tabs

Linkin Park Chords & Tabs

Version: 11 Type: Tab 0 ratings
1 star 2 stars 3 stars 4 stars 5 stars
comments

Lying From You Tab

   
Artis: Linkin Park
Album: Meteora
Song: Lying Away From YOu
Tunning drop C#( drop D and a half step down)

Palm muted=..
slide down=\
slide up=/

Intro (turn tabes)
eb---------12~-1212-12~~\-------7-77-7~--| (last time slide the 7\)
Bb-12-12~----------------1212~-----------|
F#---------------------------------------|  2X
C#---------------------------------------|
G#---------------------------------------|
C#---------------------------------------|

Guitar fill 1
eb------|
Bb------|
F#------|
C#-2222-
G#-2222-
C#-2222-
   ....

Intro
eb-----------------------------------------|
Bb-----------------------------------------|
F#-----------------------------------------| 3x fourth time
C#-022110-3-2-1-66-0-    skip the 66-0-----|
G#-022110-3-2-1-66-0-    and do the fill 2-|
C#-022110-3-2-1-66-0-----------------------|

Fill 2
eb----------|
Bb----------|
F#----------|
C#-0000-22--|
G#-0000-22--|
C#-0000-22--|
   ....

Verse
eb---------------|
Bb---------------|
F#---------------|
C#-77--00-00-22--|
G#-55--00-00-22--|
C#-55--00-00-22--|
[ Tab from: http://www.guitartabs.cc/tabs/l/linkin_park/lying_from_you_tab_ver_11.html ]
Pre-Chorus
eb---------------|
Bb---------------|
F#---------------| 1x
C#-77777777------|
G#-555555557755--|
C#-555555555555--|

Chorus
eb-----------------------------------------------------------------|
Bb-----------------------------------------------------------------|
F#------11111111\7777/9-----------------11111111\7777/9------------| 2x
C#-22-x-----------------7777-------55-x-----------------7777-00-00-|
G#-22-x-9-9-9-9-\5555/7-5555-00-00-33-x-9-9-9-9-\5555/7-7777-00-00-|
C#-22-x-----------------5555-00-00-55-x-----------------7777-00-00-|

After First Chorus *(skip the 00-00 after the 7777) and play this
eb-----------|
Bb-----------|
F#-----------|
C#-7777-00-0-| then go to the fill 2
G#-7777-00-0-|
C#-7777-00-0-|
        ..

After Second & Third Chorus *(skip the 00-00 after the 7777) and play this
eb------------------------|
Bb------------------------|
F#------------------------|
C#7777-7777-7777-000-0-00-| then play the "Intro" 8 times
G#7777-7777-7777-000-0-00-|
C#7777-7777-7777-000-0-00-|
                 ...   .
Tabbed By Julio C
aka Hu-Hu
dedicated To: M.O.
Comments