Linkin Park - Lying From You Chords & Tabs

 

Lying From You Chords & Tabs

Linkin Park Chords & Tabs

Version: 10 Type: Tab 0 ratings
1 star 2 stars 3 stars 4 stars 5 stars
comments

Lying From You Tab

   
-----------------------------------------------------------------------------
		     Lying From You - Linkin Park
-----------------------------------------------------------------------------
Tabbed by: Shifty
Email:av_shifty_lp@hotmail.com

Tuning: Standard (High Distortion)

Intro
e|--------------------------------------------------------------------------|
B|--------------------------------------------------------------------------|
G|--------------------------------------------------------------------------|
D|-[---------h2-h2-h2-h2]-2-4-3-2-5-4-3-2-7---------------------------------|
A|-[1st time-h2-h2-h2-h2]-2-4-3-2-5-4-3-2-7-(3 times)-----------------------|
E|-[---------h2-h2-h2-h2]-2-4-3-2-5-4-3-2-7---------------------------------|

Intro Ctd.
e|--------------------------------------------------------------------------|
B|--------------------------------------------------------------------------|
G|--------------------------------------------------------------------------|
D|------------2-4-3-2-5-4-3-2-h2-h2-h2-h2-----------------------------------|
A|-(4th time)-2-4-3-2-5-4-3-2-h2-h2-h2-h2-----------------------------------|
E|------------2-4-3-2-5-4-3-2-h2-h2-h2-h2-----------------------------------|

Verse
e|--------------------------------------------------------------------------|
B|--------------------------------------------------------------------------|
G|--------------------------------------------------------------------------|
D|-44--77--x-2-2222-44--77--x-2-2222-44--77--x-2-2222-44--77777777/99999999-|
A|-44--77--x-2-2222-44--77--x-2-2222-44--77--x-2-2222-44--77777777/99999999-|
E|-44--77--x-2-2222-44--77--x-2-2222-44--77--x-2-2222-44--77777777/99999999-|

Chorus (1st and 3rd times)
e|--------------------------------------------------------------------------|
B|--------------------------------------------------------------------------|
G|----h13-h13-h13-h13-h13-h13-h13-h9-h9-h9-h9/h11---------------------------|
D|-44-h13-h13-h13-h13-h13-h13-h13-h9-h9-h9-h9/h11-77777777-22222222---------|
A|-44-h13-h13-h13-h13-h13-h13-h13-h9-h9-h9-h9/h11-77777777-22222222---------|
E|-44---------------------------------------------77777777-22222222---------|

Chorus (2nd and 4th times)
e|--------------------------------------------------------------------------|
B|--------------------------------------------------------------------------|
G|----h13-h13-h13-h13-h13-h13-h13-h9-h9-h9-h9/h11---------------------------|
D|-44-h13-h13-h13-h13-h13-h13-h13-h9-h9-h9-h9/h11-99999999-[22222222]-3rd---|
A|-44-h13-h13-h13-h13-h13-h13-h13-h9-h9-h9-h9/h11-99999999-[22222222]-time--|
E|-44---------------------------------------------99999999-[22222222]-only--|

Verse
e|--------------------------------------------------------------------------|
B|--------------------------------------------------------------------------|
G|--------------------------------------------------------------------------|
D|-44--77--x-2-2222-44--77--x-2-2222-44--77--x-2-2222-44--77777777/99999999-|
A|-44--77--x-2-2222-44--77--x-2-2222-44--77--x-2-2222-44--77777777/99999999-|
E|-44--77--x-2-2222-44--77--x-2-2222-44--77--x-2-2222-44--77777777/99999999-|
[ Tab from: http://www.guitartabs.cc/tabs/l/linkin_park/lying_from_you_tab_ver_10.html ]
Chorus (1st and 3rd times)
e|--------------------------------------------------------------------------|
B|--------------------------------------------------------------------------|
G|----h13-h13-h13-h13-h13-h13-h13-h9-h9-h9-h9/h11---------------------------|
D|-44-h13-h13-h13-h13-h13-h13-h13-h9-h9-h9-h9/h11-77777777-22222222---------|
A|-44-h13-h13-h13-h13-h13-h13-h13-h9-h9-h9-h9/h11-77777777-22222222---------|
E|-44---------------------------------------------77777777-22222222---------|

Chorus (2nd time)
e|--------------------------------------------------------------------------|
B|--------------------------------------------------------------------------|
G|----h13-h13-h13-h13-h13-h13-h13-h9-h9-h9-h9/h11---------------------------|
D|-44-h13-h13-h13-h13-h13-h13-h13-h9-h9-h9-h9/h11-99999999-[22222222]-3rd---|
A|-44-h13-h13-h13-h13-h13-h13-h13-h9-h9-h9-h9/h11-99999999-[22222222]-time--|
E|-44---------------------------------------------99999999-[22222222]-only--|

Chorus 4th time
e|--------------------------------------------------------------------------|
B|--------------------------------------------------------------------------|
G|----h13-h13-h13-h13-h13-h13-h13-h9-h9-h9-h9/h11---------------------------|
D|-44-h13-h13-h13-h13-h13-h13-h13-h9-h9-h9-h9/h11-9999999999999999----------|
A|-44-h13-h13-h13-h13-h13-h13-h13-h9-h9-h9-h9/h11-9999999999999999----------|
E|-44---------------------------------------------9999999999999999----------|

Bridge
e|--------------------------------------------------------------------------|
B|--------------------------------------------------------------------------|
G|--------------------------------------------------------------------------|
D|-2-4-3-2-5-4-3-2-7--------------------------------------------------------|
A|-2-4-3-2-5-4-3-2-7-(8 times)----------------------------------------------|
E|-2-4-3-2-5-4-3-2-7--------------------------------------------------------|

Chorus (1st and 3rd times)
e|--------------------------------------------------------------------------|
B|--------------------------------------------------------------------------|
G|----h13-h13-h13-h13-h13-h13-h13-h9-h9-h9-h9/h11---------------------------|
D|-44-h13-h13-h13-h13-h13-h13-h13-h9-h9-h9-h9/h11-77777777-22222222---------|
A|-44-h13-h13-h13-h13-h13-h13-h13-h9-h9-h9-h9/h11-77777777-22222222---------|
E|-44---------------------------------------------77777777-22222222---------|

Chorus (2nd time)
e|--------------------------------------------------------------------------|
B|--------------------------------------------------------------------------|
G|----h13-h13-h13-h13-h13-h13-h13-h9-h9-h9-h9/h11---------------------------|
D|-44-h13-h13-h13-h13-h13-h13-h13-h9-h9-h9-h9/h11-99999999-[22222222]-3rd---|
A|-44-h13-h13-h13-h13-h13-h13-h13-h9-h9-h9-h9/h11-99999999-[22222222]-time--|
E|-44---------------------------------------------99999999-[22222222]-only--|

Chorus 4th time
e|--------------------------------------------------------------------------|
B|--------------------------------------------------------------------------|
G|----h13-h13-h13-h13-h13-h13-h13-h9-h9-h9-h9/h11---------------------------|
D|-44-h13-h13-h13-h13-h13-h13-h13-h9-h9-h9-h9/h11-9999999999999999----------|
A|-44-h13-h13-h13-h13-h13-h13-h13-h9-h9-h9-h9/h11-9999999999999999----------|
E|-44---------------------------------------------9999999999999999----------|


| /    slide up
| \    slide down
| h    hammer-on
| p    pull-off
| ~    vibrato
| ( )  harmonic
| x    mute note

K thats it I hope u like it
PEACE
*Shifty*
=============================================================================
Comments