Linkin Park - Lying From You Chords & Tabs

 

Lying From You Chords & Tabs

Linkin Park Chords & Tabs

Version: 1 Type: Tab 0 ratings
1 star 2 stars 3 stars 4 stars 5 stars
comments

Lying From You Tab

Linkin Park - Lying from You
tablated by Brendon Allan (i_am_hork@hotmail.com)
Taken from Meteora
Dropped D Tuning


Hey there, Here is another song that ive tabbed out from Meteora, its called Lying from You, my favourite song to play
cos its so fucking meaty, and the chorus riffs are awesome to play.  Hope this is right, cos it sounds damn close.
Cheers, im doing some more, probably try to work out the harmonics to Easier to Run and also try to do Numb and From
The Inside, three more awesome songs.
L8rs.


Intro after sample opening                   
e--------------|----------------------------------------------------------
B--------------|----------------------------------------------------------
G--------------|----------------------------------------------------------
D--------------|----------------------------------------------------------
A---x-x-x-x----|---0--2-1-0-3-2-1-0--6-6--------0--2-1-0-3-2-1-0--6-6-----
D---x-x-x-x----|---0--2-1-0-3-2-1-0--6-6--------0--2-1-0-3-2-1-0--6-6-----


Intro continued               
e----------------------------------------------------------
B----------------------------------------------------------
G----------------------------------------------------------
D----------------------------------------------------------
A---0--2-1-0-3-2-1-0--6-6--------0--2-1-0-3-2-1-x-x-x-x----
D---0--2-1-0-3-2-1-0--6-6--------0--2-1-0-3-2-1-x-x-x-x----


Verse                                             x3
e-------------------------------------------------
B-------------------------------------------------
G-------------------------------------------------
D-------------------------------------------------
A---2-2-----------5-5----------00-0-0-------------
D---2-2-----------5-5----------00-0-0-------------


Verse continued                                   x1
e------------------------------------------
B------------------------------------------
G------------------------------------------
D------------------------------------------
A---2-2-----------5-5-5-5--7-7-7-7---------
D---2-2-----------5-5-5-5--7-7-7-7---------


Chorus                                                                                                              
e-------------------------------------------------------------------------------------------------------------------
B-------------------------------------------------------------------------------------------------------------------
G---------/9-9-9-9--7-7-7--7/(9)-9-------------------------------/9-9-9-9--7-7-7--7/(9)-9---------------------------
D----------x-x-x-x--x-x-x--x-----x----------------------------------------------------------------------------------
A---2-2---/7-7-7-7--5-5-5--5/(7)-7-----5-5-5-55--00-0-0--10-10---/7-7-7-7--5-5-5--5/(7)-7-----7-7-7-77--00-0-0------
D---2-2--------------------------------5-5-5-55--00-0-0--10-10--------------------------------7-7-7-77--00-0-0------


Chorus continued
e-------------------------------------------------------------------------------------------------------------------
B-------------------------------------------------------------------------------------------------------------------
G---------/9-9-9-9--7-7-7--7/(9)-9-------------------------------/9-9-9-9--7-7-7--7/(9)-9--------------------------
D----------x-x-x-x--x-x-x--x-----x----------------------------------------------------------------------------------
A---2-2---/7-7-7-7--5-5-5--5/(7)-7-----5-5-5-55--00-0-0--10-10---/7-7-7-7--5-5-5--5/(7)-7-----7-7-7-77--00-x-x-0----
D---2-2--------------------------------5-5-5-55--00-0-0--10-10--------------------------------7-7-7-77--00-x-x-0----


Verse 2                                           x3
e-------------------------------------------------
B-------------------------------------------------
G-------------------------------------------------
D-------------------------------------------------
A---2-2-----------5-5----------00-0-0-------------
D---2-2-----------5-5----------00-0-0-------------

[ Tab from: http://www.guitartabs.cc/tabs/l/linkin_park/lying_from_you_tab.html ]
Verse 2 continued                          x1
e------------------------------------------
B------------------------------------------
G------------------------------------------
D------------------------------------------
A---2-2-----------5-5-5-5--7-7-7-7---------
D---2-2-----------5-5-5-5--7-7-7-7---------


Chorus 2                                                                                                             
e-------------------------------------------------------------------------------------------------------------------
B-------------------------------------------------------------------------------------------------------------------
G---------/9-9-9-9--7-7-7--7/(9)-9-------------------------------/9-9-9-9--7-7-7--7/(9)-9---------------------------
D----------x-x-x-x--x-x-x--x-----x----------------------------------------------------------------------------------
A---2-2---/7-7-7-7--5-5-5--5/(7)-7-----5-5-5-55--00-0-0--10-10---/7-7-7-7--5-5-5--5/(7)-7-----7-7-7-77--00-0-0------
D---2-2--------------------------------5-5-5-55--00-0-0--10-10--------------------------------7-7-7-77--00-0-0------


Chorus 2 continued
e-------------------------------------------------------------------------------------------------------------------
B-------------------------------------------------------------------------------------------------------------------
G---------/9-9-9-9--7-7-7--7/(9)-9-------------------------------/9-9-9-9--7-7-7--7/(9)-9---------------------------
D----------x-x-x-x--x-x-x--x-----x----------------------------------------------------------------------------------
A---2-2---/7-7-7-7--5-5-5--5/(7)-7-----5-5-5-55--00-0-0--10-10---/7-7-7-7--5-5-5--5/(7)-7-----7-7-7-77--77-777------
D---2-2--------------------------------5-5-5-55--00-0-0--10-10--------------------------------7-7-7-77--77-777------


Chorus 2 continued                
e-----------------------------
B-----------------------------
G-----------------------------
D-----------------------------
A---7-7-7-77--00--x-x-x-x-----
D---7-7-7-77--00--x-x-x-x-----


Interlude                                                                                            x2
e----------------------------------------------------------------------------------------------------
B----------------------------------------------------------------------------------------------------
G----------------------------------------------------------------------------------------------------
D----------------------------------------------------------------------------------------------------
A---0--2-1-0-3-2-1-0--6-6-----0--2-1-0-3-2-1-0--6-6-----0--2-1-0-3-2-1-0--6-6-----0--2-1-0-3-2-1-----
D---0--2-1-0-3-2-1-0--6-6-----0--2-1-0-3-2-1-0--6-6-----0--2-1-0-3-2-1-0--6-6-----0--2-1-0-3-2-1-----


Chorus 3                                                                                                             
e-------------------------------------------------------------------------------------------------------------------
B-------------------------------------------------------------------------------------------------------------------
G---------/9-9-9-9--7-7-7--7/(9)-9-------------------------------/9-9-9-9--7-7-7--7/(9)-9---------------------------
D----------x-x-x-x--x-x-x--x-----x----------------------------------------------------------------------------------
A---2-2---/7-7-7-7--5-5-5--5/(7)-7-----5-5-5-55--00-0-0--10-10---/7-7-7-7--5-5-5--5/(7)-7-----7-7-7-77--00-0-0------
D---2-2--------------------------------5-5-5-55--00-0-0--10-10--------------------------------7-7-7-77--00-0-0------


Chorus 3 continued
e-------------------------------------------------------------------------------------------------------------------
B-------------------------------------------------------------------------------------------------------------------
G---------/9-9-9-9--7-7-7--7/(9)-9-------------------------------/9-9-9-9--7-7-7--7/(9)-9---------------------------
D----------x-x-x-x--x-x-x--x-----x----------------------------------------------------------------------------------
A---2-2---/7-7-7-7--5-5-5--5/(7)-7-----5-5-5-55--00-0-0--10-10---/7-7-7-7--5-5-5--5/(7)-7-----7-7-7-77--77-777------
D---2-2--------------------------------5-5-5-55--00-0-0--10-10--------------------------------7-7-7-77--77-777------


Chorus 3 continued (Final bit)               
e-----------------------------
B-----------------------------
G-----------------------------
D-----------------------------
A---7-7-7-77--00--x-x-0-------
D---7-7-7-77--00--x-x-0-------

Comments