Linkin Park - Lying From You Chords & Tabs

 

Lying From You Chords & Tabs

Linkin Park Chords & Tabs

Version: 2 Type: Bass Tab 0 ratings
1 star 2 stars 3 stars 4 stars 5 stars
comments

Lying From You Bass Tab

   
Tuning: DADG

-Intro-
G|----------------|
D|----------------|
A|----------------| (x3)
D|--021-03-21-066-|

G|-----------|
D|-----------|
A|-----------|
D|-021-03-21-|

-Verse-
G|------------------------------------------------------|
D|------------------------------------------------------|
A|------------------------------------------------------| 
D|--22---55---00-00--22---55---00-000--22---55---00-000-|

G|----------------------|
D|----------------------|
A|----------------------|
D|--22---55-555-77-7777-|

-Chorus-
G|---------------------------------------------------------------------|
D|---------------------------------------------------------------------|
A|----------------------------------------------------------------(2)--|
D|--22---55-555-00-000--33---77-777-00-000--22---0/5-55-555-00-000-----|

G|------------------------|
D|------------------------|
A|-------3/5--------------|
D|--33-------77-777-00-00-|

-Verse-
[ Tab from: http://www.guitartabs.cc/tabs/l/linkin_park/lying_from_you_btab_ver_2.html ]
-Chorus-
G|---------------------------------------------------------------------|
D|---------------------------------------------------------------------|
A|----------------------------------------------------------------(2)--|
D|--22---55-555-00-000--33---77-777-00-000--22---0/5-55-555-00-000-----|

G|--------------------------------------|
D|--------------------------------------|
A|-------3/5----------------------------|
D|--33-------77-777-77-770/5-77-777-000-|

-Bridge-
G|----------------|
D|----------------|
A|----------------| (x3)
D|--021-03-21-066-|

G|-----------|
D|-----------|
A|-----------|
D|-021-03-21-|

-Chorus-
G|------------------------------------------------------------------------------|
D|------------------------------------------------------------------------------|
A|----------------------------------------------------------------(2)-------3/5-|
D|--22---55-555-00-000--33---77-777-00-000--22---0/5-55-555-00-000-----33-------|

-Outro-
G|---------------------------|
D|---------------------------|
A|---------------------------|
D|-77-777-77-777-77-777-00-0-|
Comments