Linkin Park - Lying From You Chords & Tabs

 

Lying From You Chords & Tabs

Linkin Park Chords & Tabs

Version: 1 Type: Bass Tab 0 ratings
1 star 2 stars 3 stars 4 stars 5 stars
comments

Lying From You Bass Tab

Band : Linkin Park
Song : Lying From You
Album : Meteora
Tabbed By : LLCoolTay@yahoo.com

Turn your E string into a C#

Intro
G :------------------|X3|------------------
D :------------------|X3|------------------
A :------------------|X3|------------------
C#:-02221-0-3-2-1-05-|X3|-0-2221-0-3-2-1---

Verses
G :--------------------------|X3|----------------------------
D :--------------------------|X3|----------------------------
A :--------------------------|X3|----------------------------
C#:-2-2-------5-5-----00-0-0-|X3|-2-2-------5-5~-----77-7-7~-

1st Chorus
G :-----------------------------------------------------
D :-----------------------------------------------------
A :---------------------------2-2-----------------------
C#:-2-2-------5-5-55-5-00-0-0-----------7-7-77-7-00-0-0-
[ Tab from: http://www.guitartabs.cc/tabs/l/linkin_park/lying_from_you_btab.html ]
G :-----------------------------------------------------
D :-----------------------------------------------------
A :---------------------------2-2----2/4----------------
C#:-2-2-----0/5-5-55-5-00-0-0------------7-7-77-7-00----

2nd Chorus & 3rd Chorus
G :-----------------------------------------------------
D :-----------------------------------------------------
A :---------------------------2-2-----------------------
C#:-2-2-------5-5-55-5-00-0-0-----------7-7-77-7-00-0-0-

G :-------------------------------------------------------------------
D :-------------------------------------------------------------------
A :---------------------------2-2----2/4------------------------------
C#:-2-2-----0/5-5-55-5-00-0-0------------7-7-77-7-77-7-77-7-7-77-7-00-

Bridge (play it 2 times)
G :------------------|X3|------------------
D :------------------|X3|------------------
A :------------------|X3|------------------
C#:-02221-0-3-2-1-05-|X3|-0-2221-0-3-2-1---
Comments