Linkin Park - Its Goin Down Chords & Tabs

 

Its Goin Down Chords & Tabs

Linkin Park Chords & Tabs

Version: 1 Type: Bass Tab 0 ratings
1 star 2 stars 3 stars 4 stars 5 stars
comments

Its Goin Down Bass Tab

Band- Linkin Park
Song- It's Goin' Down

key:

s=slap p=pop h=hammer x=muted note

chorus

D|-----------------r--------------------------------|
A|-----------------r--------------------------------|
E|-----------------r---------------------7---7------|
B|1--1--1--1-h3-2--r-----1--1--1--1-3---2---2-------|

s s s s s s s s s s ss ss

repeats many times till

verse

D|--------------------|r
A|--------------------|r
E|--------------------|r
B|1--1--1--1-h3-2-----|r

or
[ Tab from: http://www.guitartabs.cc/tabs/l/linkin_park/its_goin_down_btab.html ]
chorus
D|-----------------r--------------------------------|
A|-----------------r--------------------------------|
E|-----------------r--------------------------------|
B|1--1--1--1-h3-2--r-----1--1--1--1-3---2/12---2/12-|

repeats many times till

verse

D|--------------------|r
A|--------------------|r
E|--------------------|r
B|1--1--1--1-h3-2-----|r


or


chorus

D|-----------------r------------------------------------|
A|-----------------r------------------------------------|
E|-----------------r------------------------------------|
B|1--1--1--x-3--2--r-----1--1--1--x-3---2(12)h--2(12)h--|

D|--------------------|r
A|--------------------|r
E|--------------------|r
B|1--1--1--x-3--2-----|r
Comments