Linkin Park - Iridescent Chords & Tabs

 

Linkin Park Chords & Tabs

Version: 1 Type: Tab 0 ratings
1 star 2 stars 3 stars 4 stars 5 stars
comments

Iridescent Tab

   
Linkin Park - Iridescent (A Thousand Suns)
DADGBE Tuning
I'm not entirely sure this is exactly how Brad plays it, but I'm pretty sure the notes
are right. It's just what I got by ear anyways. I'm only tabbing out one guitar part
at least 2, but I'm just doing one).
Thanks for looking,
Nick (or nickanderson4639 on YouTube)
So here's how I think it goes:
(After 1st chorus)
D|---------------------------------------------------------------------------|
A|---------------------------------------------------------------------------|
D|---------------------------------------------------------------------------|
G|---------------------------------------------------------------------------|
B|-------------------------------------------------------------------3-------|
E|---------------------------------------------------------------------------|......

D|--------------------------------------------------------------------------|
A|--------------------------------------------------------------------------|
D|--------------------------------------------------------------------------|
G|--------------------------------------------------------------------------|
B|---5--------8--------6-------5------1-----------------------------3-------|
E|..........................................................................

D|--------------------------------------------------------------------------|
A|--------------------------------------------------------------------------|
D|--------------------------------------------------------------------------|
G|--------------------------------------------------------------------------|
B|---5--------8--------6-------5------1-----------------------------3-------|
E|..........................................................................

D|--------------------------------------------------------------------------|
A|--------------------------------------------------------------------------|
D|--------------------------------------------------------------------------|
G|--------------------------------------------------------------------------|
B|---5----------------------------------------------------------------------|
E|--------------------------------------------------------------------------|

(The dots mean to tremolo pick those notes)

(Solo):

D|--------------------------------------------------------------------------|
A|--------------------------------------------------------------------------|
D|--------------------------------------------------------------------------|
G|--------------------------------------------------------------------------|
B|--13--13--13--13--13--13--13--13--13--13--13--13--13--13--13--13----------|
E|--12--12--12--12--15------12------13------12------13------12--------------|

D|--------------------------------------------------------------------------|
A|--------------------------------------------------------------------------|
D|--------------------------------------------------------------------------|
G|--------------------------------------------------------------------------|
B|--10--10--10--10--10--10--10--10---8---8---8---8---8---8---8---8----------|
E|---8---8---8---8---8---8---8---8---7---7---7---7---7---7---7---7----------|

D|--------------------------------------------------------------------------|
A|--------------------------------------------------------------------------|
D|--------------------------------------------------------------------------|
G|--------------------------------------------------------------------------|
B|--13--13--13--13--13--13--13--13--13--13--13--13--13--13--13--13----------|
E|--12--12--12--12--15------12------13------12------13------12--------------|
[ Tab from: http://www.guitartabs.cc/tabs/l/linkin_park/iridescent_tab.html ]
D|--------------------------------------------------------------------------|
A|--------------------------------------------------------------------------|
D|--------------------------------------------------------------------------|
G|--------------------------------------------------------------------------|
B|--10--10--10--10--10--10--10--10---8---8---8---8---8---8---8---8----------|
E|---8---8---8---8---8---8---8---8---7---7---7---7---7---7---7---7----------|

D|--------------------------------------------------------------------------|
A|--------------------------------------------------------------------------|
D|--------------------------------------------------------------------------|
G|--------------------------------------------------------------------------|
B|--13--13--13--13--13--13--13--13--13--13--13--13--13--13--13--13----------|
E|--12--12--12--12--15------12------13------12------13------12--------------|

D|--------------------------------------------------------------------------|
A|--------------------------------------------------------------------------|
D|--------------------------------------------------------------------------|
G|--------------------------------------------------------------------------|
B|--10--10--10--10--10--10--10--10---8---8---8---8---8---8---8---8----------|
E|---8---8---8---8---8---8---8---8---7---7---7---7---7---7---7---7----------|

D|--------------------------------------------------------------------------|
A|--------------------------------------------------------------------------|
D|--------------------------------------------------------------------------|
G|--------------------------------------------------------------------------|
B|--13--13--13--13--13--13--13--13--13--13--13--13--13--13--13--13----------|
E|--12--12--12--12--15------12------13------12------13------12--------------|

D|--------------------------------------------------------------------------|
A|--------------------------------------------------------------------------|
D|--------------------------------------------------------------------------|
G|--------------------------------------------------------------------------|
B|--10--10--10--10--10--10--10--10---8---8---8---8---8---8---8---8----------|
E|---8---8---8---8---8---8---8---8---7---7---7---7---7---7---7---7----------|
D|--------------------------------------------------------------------------|
A|--------------------------------------------------------------------------|
D|--------------------------------------------------------------------------|
G|--------------------------------------------------------------------------|
B|--13--13--13--13--13--13--13--13--13--13--13--13--13--13--13--13----------|
E|--12--12--12--12--15------12------13------12------13------12--------------|

D|--------------------------------------------------------------------------|
A|--------------------------------------------------------------------------|
D|--------------------------------------------------------------------------|
G|--------------------------------------------------------------------------|
B|--10--10--10--10--10--10--10--10---8---8---8---8---8---8---8---8----------|
E|---8---8---8---8---8---8---8---8---7---7---7---7---7---7---7---7----------|

(Not sure about this part but it sounds kind of close, right before when Chester comes
on "Let it go")

D|--------------------------------------------------------------------------|
A|--------------------------------------------------------------------------|
D|--------------------------------------------------------------------------|
G|--------------------------------------------------------------------------|
B|--10--10--10--10--10--10--10--10--10--10--10--10--10--10--10--10----------|
E|---8---8---8---8---8---8---8---8---8---8---8---8---8---8---8---8----------|

D|--------------------------------------------------------------------------|
A|--------------------------------------------------------------------------|
D|--------------------------------------------------------------------------|
G|--------------------------------------------------------------------------|
B|---8---8---8---8---8---8---8---8---8---8---8---8---8---8---8---8----------|
E|---7---7---7---7---7---7---7---7---7---7---7---7---7---7---7---7----------|

Brad repeats the solo part, and Chester plays another guitar part (that one isn't as
to figure out, so I'll leave that up to you :)  ). This is just the main chunk of guitar in
song. Please don't be TOO harsh on your criticisms, because this is my first tab, but 
sound pretty accurate :).
Comments