Linkin Park - In The End Chords & Tabs

 

In The End Chords & Tabs

Linkin Park Chords & Tabs

Version: 9 Type: Tab 0 ratings
1 star 2 stars 3 stars 4 stars 5 stars
comments

In The End Tab

Static
e-------------------------------------------
b-------------------------------------------
g---------/-\------/-\---------/-\----/-/-/-
d---------9-9------9-9---------9-9----9-----
a--7--7-7------7-7------7--7-7------7---7---
e-------------------------------------------

e-------------------------------- ---------------
b-------------------------------- ---------------
g-------------------------------- ---------------
d----9-9------------------------- ----9-9--------
a--7------10-9-9---9-9-9-10-9---- --7------10-9--
e-------------------------------- ---------------

Verses
e-------------------------------------------------------17--------------
b----20---------------19--------------17--------------------------------
g-----------------------------------------------------------------------
d-----------------------------------------------------------------------
a-----------------------------------------------------------------------
e-----------------------------------------------------------------------
[ Tab from: http://www.guitartabs.cc/tabs/l/linkin_park/in_the_end_tab_ver_9.html ]
e-----------------------------------------------------------------------
b----20---------------19--------------17----------------17--------------
g-----------------------------------------------------------------------
d-----------------------------------------------------------------------
a-----------------------------------------------------------------------
e-----------------------------------------------------------------------

then intro x4

And Chorus

e------------------------------------------ -
b------------------------------------------ -
g------------5-------------------7--------- 4
d--2---------5---------5---------7--------- 4
a--2---------3---------5---------5--------- 2
e--0-------------------3------------------- - between

The intro again
e----------------------------------------------------------
b----------------------------------------------------------
g------------9---11/12\11----------------------------------
d---------9------------9 2sd guitar-/-\-/-\-/-\------------
a--9-10----------------------------------------------------
e----------------------------------------------------------

The ooze drop and shit floats!
Comments