Linkin Park - In The End Chords & Tabs

 

In The End Chords & Tabs

Linkin Park Chords & Tabs

Version: 5 Type: Tab 0 ratings
1 star 2 stars 3 stars 4 stars 5 stars
comments

In The End Tab

song: In the end
Band: linkin park

tuning: drop Db

intro - piano tabbed out as guitar
--------------------------
--------------------------
--------------------------
----9--9------------------
--7------10--9-9-9--9-10--
--------------------------
[ Tab from: http://www.guitartabs.cc/tabs/l/linkin_park/in_the_end_tab_ver_5.html ]
verse - clean
------------------------------12---
----7------5---------7-------------
--5---------------5----------------
-----------------------------------
-----------------------------------
-----------------------------------
natural harmonics - - - - - - - - |

chorus - dist (listen to cd for strumming pattern)
-------------------------
-------------------------
-------------------------
--5----8-----0------10---
--5----8-----0------10---
--5----8-----0------10---

if you have any questions or comments email me at 
silverchair_surfing_bird@hotmail.com
Comments