Linkin Park - In The End Chords & Tabs

 

In The End Chords & Tabs

Linkin Park Chords & Tabs

Version: 3 Type: Tab 3 ratings
1 star 2 stars 3 stars 4 stars 5 stars
comments

In The End Tab

Tunning is drop d then ½ step
* = HARMONIC
        
        INTRO (piano part converted to guitar)
D#|-----------------------|
A#|-----------------------|
F#|-----------------------|
C#|---9-9-----------------|
G#|-7-----10-9-9-9-9-9-10-|
C#|-----------------------|

        VERSE 1
|------*7-------*12-----|   (FIND OUT THE RYTHM IT SHOLD BE HARD)
|---*7-------*7---------|
|*5-------*5------------|
|-----------------------|
|-----------------------|
|-----------------------|

       CHOURUS 1
|-----------------------|
|-----------------------|
|------------------5-5--|
|-2-2---5-5--4-4---5-5--|
|-2-2---5-5--0-0---3-3--|
|-2-2---5-5--0-0--------|

       VERSE 2  
|------*7-------*12-----|  (FIND OUT THE RYTHM IT SHOLD BE HARD)
|---*7-------*7---------|
|*5-------*5------------|
|-----------------------|
|-----------------------|
|-----------------------|
[ Tab from: http://www.guitartabs.cc/tabs/l/linkin_park/in_the_end_tab_ver_3.html ]
      CHOURUS 2 
|-----------------------|
|-----------------------|
|------------------5-5--|
|-2-2---5-5--4-4---5-5--|
|-2-2---5-5--0-0---3-3--|
|-2-2---5-5--0-0--------|


              TRANSITION INTO BRIDGE (WHEN CHESTER SINGS)
|--------------|
|--------------|
|--5--5--5-----|             JUST PLAY IT IN EIGTH NOTES AND WHEN CHESTER STARTS TO SING
|--5--5--5-----|
|--3--3--3-----|
|--------------|


        BRIDGE (piano part converted to guitar)
D#|-----------------------|
A#|-----------------------|
F#|-----------------------|
C#|---9-9-----------------|
G#|-7-----10-9-9-9-9-9-10-|
C#|-----------------------|

        CHOURUS 3
|-----------------------|
|-----------------------|
|------------------5-5--|
|-2-2---5-5--4-4---5-5--|
|-2-2---5-5--0-0---3-3--|
|-2-2---5-5--0-0--------|
      ENDING  (PIANO PART CONVERTED TO GUITAR)
Eb|-------------------|
Bb|-------------------| 
Gb|-------9-11-12-11--| 
Db|-----9-------------| 
Ab|-7-10--------------| 
Db|-------------------| 
Comments