Linkin Park - In The End Chords & Tabs

 

In The End Chords & Tabs

Linkin Park Chords & Tabs

Version: 10 Type: Tab 0 ratings
1 star 2 stars 3 stars 4 stars 5 stars
comments

In The End Tab

   
-----------------------------------------------------------------------------
			     In The End - Linkin Park
-----------------------------------------------------------------------------
Tabbed by: Shifty
Email: av_shifty_lp@hotmail.com

Tuning:Drop Db
Db Ab Db Gb Bb Eb

intro: riff a ( piano )

e----------------------------------------------------------|
b----0--0----------------------0--0------------------------|
g----------0-------------0-----------0-------------0-------|
d-2-----------4--4--4--4----2-----------4--4--4--4---------|
a-------------5-------------3-----------5------------------|
d----------------------------------------------------------|

verse 1 & 2 (all harmonics)

e---------------7-----------------------12-----------------|
b---7----------------------7-------------------------------|
g-5----------------------5---------------------------------|
d----------------------------------------------------------|
a----------------------------------------------------------|
d----------------------------------------------------------|

Chorus:

gtr 1. all harmonics

e---------------7----------------------------5-------------|
b-7---------------------------7----------------------------|
g--------------------------5----------------------------5--|
d----------------------------------------------------------|
a----------------------------------------------------------|
d----------------------------------------------------------|

gtr 2.
[ Tab from: http://www.guitartabs.cc/tabs/l/linkin_park/in_the_end_tab_ver_10.html ]
e----------------------------------------------------------|
b----------------------------------------------------------|
g--------------------------------------------5-------5-----|
d-2--------------5-------------0-------------5-------5--0--|
a-2--------------5-------------0-------------3-------3--0--|
d-2--------------5-------------0------------------------0--|

gtr 1 all harmonics

e---------------7----------------------------5-------------|
b-7---------------------------7----------------------------|
g--------------------------5-------------------------------|
d----------------------------------------------------------|
a----------------------------------------------------------|
d----------------------------------------------------------|

gtr 2.

e----------------------------------------------------------|
b----------------------------------------------------------|
g--------------------------------------------5-------5--4--|
d-2--------------5-------------0-------------5-------5--4--|
a-2--------------5-------------0-------------3-------3--2--|
d-2--------------5-------------0---------------------------|

bridge: riff a and chorus

outro: piano riff x4

e----------------------------------------------------------|
b----0--0----------------------0--0------------------------|
g----------0-------------0-----------0-------------0-------|
d-2-----------4--4--4--4----2-----------4--4--4--4---------|
a----------------------------------------------------------|
d----------------------------------------------------------|

e------------------0---2---3---2---------------------------|
b------------0---------------------------------------------|
g------0---------------------------------------------------|
d-2--------------------------------------------------------|
a----------------------------------------------------------|
d----------------------------------------------------------|
Comments