Linkin Park - In The End Chords & Tabs

 

In The End Chords & Tabs

Linkin Park Chords & Tabs

Version: 4 Type: Bass Tab 0 ratings
1 star 2 stars 3 stars 4 stars 5 stars
comments

In The End Bass Tab

In the End - Linkin Park

By: Jon Craven (i_apathy@hotmail.com)
For questions, comments, feedback, an outline of the timing, write the above
address.

Note:
  -Played with a pick.

(4/4)(106 bpm)
5-string tuned a half step down

. (above note) - staccato note
r - eighth rest
+ - note held for a sixteenth beat
* - note held for an eighth beat
/ - slide up
. - sixteenth rest

Verse 1: (0:19)
|----------------|----------------|----------------|----------------|
|----------------|----------------|----------------|----------------|
|----.-----------|----------------|----------------|----------------|
|00000---r-0-0000|----.-----------|----.-----------|----.-----------|
|----------------|33333---r-3-3333|11111---r-1-1111|33333---r-3-3333|

|----------------|----------------|----------------|----------------|
|----------------|----------------|----------------|----------------|
|----.-----------|----------------|----------------|----------------|
|00000---r-0-0000|----.-----------|----.-----------|----.-----------|
|----------------|33333---r-3-3333|11111---r-1-1111|33333---r-3-3333|

|----------------|----------------|----------------|----------------|
|----------------|----------------|----------------|----------------|
|----.-----------|----------------|----------------|----------------|
|00000---r-0-0000|----.-----------|----.-----------|----.-----------|
|----------------|33333---r-3-3333|11111---r-1-1111|33333---r-3-3333|

|----------------|----------------|----------------|----------------|
|----------------|----------------|----------------|----------------|
|----.-----------|----------------|----------------|----------------|
|00000---r-0-0000|----.-----------|----.-----------|----------------|
|----------------|33333---r-3-3333|11111---r-1-1111|33333-33-3-33-3-|

Chorus 1: (0:55)
|----------------|----------------|----------------|----------------|
|----------------|----------------|----------------|----------------|
|----------------|----------------|----------------|3---3-+3*-*-----|
|0---0-+0*-*-0-0-|3---3-+3*-*-3---|----------------|----------------|
|----------------|----------------|3---3-+3*-*-3---|------------3---|

|----------------|----------------|----------------|----------------|
|----------------|----------------|----------------|----------------|
|----------------|----------------|----------------|3---3-+33---2---|
|0---0-+0+0000---|3---3-+3+0000---|----------------|----------------|
|----------------|----------------|3---3-+3*-333-3-|----------------|

Verse 2: (1:14)
|----------------|----------------|----------------|----------------|
|----------------|----------------|----------------|----------------|
|----------------|----------------|----------------|--------.-------|
|00000---r-0-0000|----------------|----------------|--------3---3---|
|----------------|33333---r-3-3333|11111---r-1-1111|33333-----------|

|----------------|----------------|----------------|----------------|
|----------------|----------------|----------------|----------------|
|----------------|----------------|----------------|----------------|
|00000---r-0-0000|----------------|----------------|----------------|
|----------------|33333---r-3-3333|11111---r-1-1111|33333---r-3---3-|
[ Tab from: http://www.guitartabs.cc/tabs/l/linkin_park/in_the_end_btab_ver_4.html ]
|----------------|----------------|----------------|----------------|
|----------------|----------------|----------------|----------------|
|----------------|----------------|----------------|----------------|
|00000---r-0-0000|----------------|----------------|----------------|
|----------------|33333---r-3-3333|11111---r-1-1111|33333---r-3---3-|

|----------------|----------------|----------------|----------------|
|----------------|----------------|----------------|----------------|
|----------------|----------------|----------------|--------5-*-*-*-|
|00000---r-0-0000|----------------|----------------|----------------|
|----------------|33333---r-3-3333|11111---r-1-1111|33333-----------|

Chorus 2: (1:50)
|----------------|----------------|----------------|----------------|
|----------------|----------------|----------------|----------------|
|----------------|----------------|----------------|3---3-+3*-*-----|
|0---0-+0*-*-0-0-|3---3-+3*-*-3---|----------------|----------------|
|----------------|----------------|3---3-+3*-*-3---|------------3---|

|----------------|----------------|----------------|----------------|
|----------------|----------------|----------------|----------------|
|----------------|----------------|----------------|3---3-+3*-*-2---|
|0---0-+0+0000---|3---3-+3+0000---|----------------|--------------3-|
|----------------|----------------|3---3-+3*-333-3-|----------------|

|----------------|
|----------------|
|----------------|
|----------------|
|1-*-*-*-*-*-*-*-|

Verse 3: (2:11)
|----------------|----------------|----------------|----------------|
|----------------|----------------|----------------|----------------|
|7-*-*-*-*-*-*-*-|5-*-*-*-*-*-*-*-|3-*-*-*-*-*-*-*-|5-*-*-*-*-*-*-5/|
|----------------|----------------|----------------|----------------|
|----------------|----------------|----------------|----------------|

|----------------|----------------|----------------|----------------|
|----------9-----|----------------|----------------|----------------|
|7-*-*-*-*-----7-|5-*-*-*-*-*-*---|3-*-*-*-*-*-*-*-|----------------|
|----------------|--------------3-|----------------|----------------|
|----------------|----------------|----------------|3-*-*-*-*-*-*-*-|

Pre-chorus: (2:29)
|----------------|----------------|----------------|----------------|
|----------------|----------------|----------------|----------------|
|----------------|----------------|----------------|----------------|
|0-+00-+0+0000000|3-+33-+3+3333333|----------------|----------------|
|----------------|----------------|3-+33-*-+3333333|1-+11-11+1113333|

|----------------|----------------|----------------|----------------|
|----------------|----------------|----------------|----------------|
|----------------|----------------|----------------|-----------03333|
|0-+00-*-*-000000|3-+33-+3+3333333|----------------|----------------|
|----------------|----------------|3-+33-+3*-333333|1-+11-+111.-----|

Outro: (2:47)
|----------------|----------------|----------------|----------------|
|----------------|----------------|----------------|----------------|
|----------------|----------------|----------------|3---3-+3*-*-----|
|0---0-+0*-*-0-0-|3---3-+3*-*-3---|----------------|----------------|
|----------------|----------------|3---3-+3*-*-3---|------------3---|

|----------------|----------------|----------------|----------------|
|----------------|----------------|----------------|----------------|
|----------------|----------------|----------------|3---3-+33-3-2---|
|0---0-+0+0000---|3---3-+3+0000---|----------------|----------------|
|----------------|----------------|3---3-+3*-333-3-|----------------|
 (hold till end)
|----------------|
|----------------|
|----------------|
|0-*-*-*-*-*-*-*-|
|----------------|
Comments