Linkin Park - Hit The Floor Chords & Tabs

 

Hit The Floor Chords & Tabs

Linkin Park Chords & Tabs

Version: 7 Type: Tab 0 ratings
1 star 2 stars 3 stars 4 stars 5 stars
comments

Hit The Floor Tab

-------------------------------------------------------------------------------
			 Hit The Floor - Linkin Park
-------------------------------------------------------------------------------

Tabbed by: Mike
Email: mkybrat@hotmail.com


I'm pretty sure this is how it goes. Have fun playin this awesome song!!


D|---------------------------------------------------------------------------|
A|---------------------------------------------------------------------------|
F|---------------------------------------------------------------------------|
C|---------------------------------------------------------------------------|
G|---------------------------------------------------------------------------|
C|-1-5-1-2--2-2-1----1-5-1-2--2-2-1----1-5-1-2--2-2-1----1-5-1-2--2-2-1------|


D|------------------------------------------------------------------|
A|------------------------------------------------------------------|
F|------------------------------------------------------------------|
C|-1-9-9-9-8----1-5-1-2--2-2-1---1-9-9-9-8----1-5-1-2--2-2-1--------|
G|-1-9-9-9-8----1-5-1-2--2-2-1---1-9-9-9-8----1-5-1-2--2-2-1--------|x2
C|-1-9-9-9-8----1-5-1-2--2-2-1---1-9-9-9-8----1-5-1-2--2-2-1--------|



D|-------------------------------------------------------------------------|
A|-------------------------------------------------------------------------|
F|-------------------------------------------------------------------------|
C|-------------------------------------------------------------------------|
G|-------------------------------------------------------------------------|
C|-1-5-1-2--2-2-1----1-5-1-2--2-2-1----1-5-1-2--2-2-1----1-5-1-2--2-2-1----|x2



D|--------------------------------------------------------------|
A|--------------------------------------------------------------|
F|--------------------------------------------------------------|
C|-1-9-9-9-8----1-5-1-2--2-2-1---1-9-9-9-8----1-5-1-2--2-2-1----|
G|-1-9-9-9-8----1-5-1-2--2-2-1---1-9-9-9-8----1-5-1-2--2-2-1----|x2
C|-1-9-9-9-8----1-5-1-2--2-2-1---1-9-9-9-8----1-5-1-2--2-2-1----|


D|-----------------------------|
A|-----------------------------|
F|-----------------------------|
C|-1-9-9-9-8-------------------|
G|-1-9-9-9-8-------------------|
C|-1-9-9-9-8-----1-5-1-2--2-2-1|

[ Tab from: http://www.guitartabs.cc/tabs/l/linkin_park/hit_the_floor_tab_ver_7.html ]
D|--------------------------------------------------------------------------|
A|--------------------------------------------------------------------------|
F|--------------------------------------------------------------------------|
C|--------------------------------------------------------------------------|
G|--------------------------------------------------------------------------|
C|-1-5-1-2--2-2-1----1-5-1-2--2-2-1----1-5-1-2--2-2-1----1-5-1-2--2-2-1-----|x2

D|--------------------------------------------------------------|
A|--------------------------------------------------------------|
F|--------------------------------------------------------------|
C|-1-9-9-9-8----1-5-1-2--2-2-1---1-9-9-9-8----1-5-1-2--2-2-1----|
G|-1-9-9-9-8----1-5-1-2--2-2-1---1-9-9-9-8----1-5-1-2--2-2-1----|x2
C|-1-9-9-9-8----1-5-1-2--2-2-1---1-9-9-9-8----1-5-1-2--2-2-1----|

D|---------------------------------------------------------|
A|---------------------------------------------------------|
F|---------------------------------------------------------|
C|-1-9-9-9-8----1-1-1-4---1-1-1-2---1-1-1-4---1-1-1-2------|
G|-1-9-9-9-8----1-1-1-4---1-1-1-2---1-1-1-4---1-1-1-2------|
C|-1-9-9-9-8----1-1-1-4---1-1-1-2---1-1-1-4---1-1-1-2------|

D|---------------------------------------------------------------------------|
A|---------------------------------------------------------------------------|
F|---------------------------------------------------------------------------|
C|---------------------------------------------------------------------------|
G|---------------------------------------------------------------------------|
C|-1-5-1-2--2-2-1----1-5-1-2--2-2-1----1-5-1-2--2-2-1----1-5-1-2--2-2-1------|

D|---------------------------------------------------------------|
A|---------------------------------------------------------------|
F|---------------------------------------------------------------|
C|-1-5-1-2--2-2-1---1-9-9-9-8----1-5-1-2--2-2-1---1-9-9-9-8------|
G|-1-5-1-2--2-2-1---1-9-9-9-8----1-5-1-2--2-2-1---1-9-9-9-8------|x2
C|-1-5-1-2--2-2-1---1-9-9-9-8----1-5-1-2--2-2-1---1-9-9-9-8------|

D|----------------------------------------------|
A|----------------------------------------------|
F|----------------------------------------------|
C|-1-1-1-4---1-1-1-2---1-1-1-4---1-1-1-2\1------|
G|-1-1-1-4---1-1-1-2---1-1-1-4---1-1-1-2\1------|
C|-1-1-1-4---1-1-1-2---1-1-1-4---1-1-1-2\1------|

D|-------------------------------------------------|
A|-------------------------------------------------|
F|-------------------------------------------------|
C|-1-5-1-2--2-2-1----1-9-9-9-8----1-5-1-2---2-2-1--|
G|-1-5-1-2--2-2-1----1-9-9-9-8----1-5-1-2---2-2-1--|
C|-1-5-1-2--2-2-1----1-9-9-9-8----1-5-1-2---2-2-1--|
Comments