Linkin Park - Hit The Floor Chords & Tabs

 

Hit The Floor Chords & Tabs

Linkin Park Chords & Tabs

Version: 6 Type: Tab 0 ratings
1 star 2 stars 3 stars 4 stars 5 stars
comments

Hit The Floor Tab

-------------------------------------------------------------------------------
			   Hit the Floor - Linkin Park
-------------------------------------------------------------------------------

Tabbed by: Pryftan
Email: mmisbetterthenyou@hotmail.com
Album: Meteora. Hells yeah.

Tuning: Drop D one step down (Drop Db)

Intro/Verse:
Eb|------------------|
Bb|------------------|
Gb|------------------|
Db|-0-4-0-1---1-1-0--|
Ab|-0-4-0-1---1-1-0--|
Db|-0-4-0-1---1-1-0--|
[ Tab from: http://www.guitartabs.cc/tabs/l/linkin_park/hit_the_floor_tab_ver_6.html ]
Chorus:
Eb|------------------------------|
Bb|------------------------------|
Gb|------------------------------|
Db|-0-4-0-1---1-1-0---0-8-8-8-7--|
Ab|-0-4-0-1---1-1-0---0-8-8-8-7--|
Db|-0-4-0-1---1-1-0---0-8-8-8-7--|

"And then it's all gone"
Intro/Verse:
Eb|--------------------------------|
Bb|--------------------------------|
Gb|--------------------------------|
Db|-0-0-0-0-0-0-3---0-0-0-0-0-0-1--|
Ab|-0-0-0-0-0-0-3---0-0-0-0-0-0-1--|
Db|-0-0-0-0-0-0-3---0-0-0-0-0-0-1--|
Comments