Linkin Park - Hit The Floor Chords & Tabs

 

Hit The Floor Chords & Tabs

Linkin Park Chords & Tabs

Version: 5 Type: Tab 0 ratings
1 star 2 stars 3 stars 4 stars 5 stars
comments

Hit The Floor Tab

Tabbed By:streetspirit87

here are the tabs to "hit the Floor" from Meteora!!!

Intro, "Lightly Palm Mute"
D||---------------------------|
A||---------------------------|
F||---------------------------|
C||---------------------------|
G||---------------------------|
C||-0-4-0-1--1-1-0------------|
[ Tab from: http://www.guitartabs.cc/tabs/l/linkin_park/hit_the_floor_tab_ver_5.html ]
Verse Prt1 
(This is played before most of the verses, listen to the song)
D||---------------------------|
A||---------------------------|
F||---------------------------|
C||-0-8-8-8-7-----------------|
G||-0-8-8-8-7-----------------|
C||-0-8-8-8-7-----------------|

Verse
D||---------------------------|
A||---------------------------|
F||---------------------------|
C||-0-4-0-1--1-1-0------------|
G||-0-4-0-1--1-1-0------------|
C||-0-4-0-1--1-1-0------------|

Bridge 
(Little Part you can hear in part of the song)
D||---------------------------|
A||---------------------------|
F||---------------------------|
C||-0-0-0-0-3-----------------|
G||-0-0-0-0-3-----------------|
C||-0-0-0-0-3-----------------|
Comments