Linkin Park - Hit The Floor Chords & Tabs

 

Hit The Floor Chords & Tabs

Linkin Park Chords & Tabs

Version: 3 Type: Tab 0 ratings
1 star 2 stars 3 stars 4 stars 5 stars
comments

Hit The Floor Tab

Hit the Floor
Linkin Park
Drop D with half step down
Tabbed by Mike Kopp

Intro/chorus                                                        
|--------------------------------------------| (4 times) 
|--------------------------------------------|                   
|--------------------------------------------|
|--------------------------------------------|
|--------------------------------------------|
|--0-4-0-1--1-1-0----------------------------|

Then after 4th time
|-----------------------------------|
|-----------------------------------|
|-----------------------------------|
|----8-8-8-8--7---------------------|
|----8-8-8-8--7---------------------|
|--0-8-8-8-8--7---------------------|
[ Tab from: http://www.guitartabs.cc/tabs/l/linkin_park/hit_the_floor_tab_ver_3.html ]
Then
|--------------------------------------------| (4 times)
|--------------------------------------------|
|--------------------------------------------|
|--0-4-0-1--1-1-0----8-8-8-8--7--------------|
|--0-4-0-1--1-1-0----8-8-8-8--7--------------|
|--0-4-0-1--1-1-0--0-8-8-8-8--7--------------|

Then
|-------------------------------|
|-------------------------------|
|-------------------------------|
|--0-4-0-1--1-1-0---------------|
|--0-4-0-1--1-1-0---------------|
|--0-4-0-1--1-1-0---------------|

Interlude
|---------------------------------| (2 times)
|---------------------------------|
|---------------------------------|
|--0-0-0-3--0-0-0-1---------------|
|--0-0-0-3--0-0-0-1---------------|
|--0-0-0-3--0-0-0-1---------------|
That’s it. Tell me what you think at Mike_the_milk_man@yahoo.com
Comments