Linkin Park - Hit The Floor Chords & Tabs

 

Hit The Floor Chords & Tabs

Linkin Park Chords & Tabs

Version: 13 Type: Tab 0 ratings
1 star 2 stars 3 stars 4 stars 5 stars
comments

Hit The Floor Tab

Artist: Linkin Park
Song: Hit the Floor
Album: Meteora
Tabbed By: Mitchell
E-mail: ICPmushroomKNOT@yahoo.com

Ok I know this is right because I got it 
From a book and I even put in the parts 
That are hard to hear.

PM.   = Palm Mute
***   = Some kind of mute or distortion
~~~   = Let notes ring

Intro/Verse
D#|--------------------|
A#|--------------------|
F#|--------------------|
C#|--------------------|
G#|--------------------|
C#|-0-4-0-1--1-1-0-----| x4
PM  . . . .  . . .    

Chorus
D#|---------------------------------|
A#|---------------------------------|
F#|---------------------------------|
C#|-0-8-8-8-7--0-4-0-1--1-1-1-0-----|
G#|-0-8-8-8-7--0-4-0-1--1-1-1-0-----|
C#|-0-8-8-8-7--0-4-0-1--1-1-1-0-----| x4
    * * * * * 
   (Only once)

D#|--------------------|
A#|--------------------|
F#|--------------------|
C#|--------------------|
G#|--------------------|
C#|-0-4-0-1--1-1-0-----| x9 Listen for the 1st time carefully when Chester says "Gone"
PM  . . . .  . . .    
                        
D#|---------------------------------|    |-----------|
A#|---------------------------------|    |-----------|
F#|---------------------------------|    |-----------|
C#|-0-8-8-8-7--0-4-0-1--1-1-1-0-----|    |-0-8-8-8-7-|
G#|-0-8-8-8-7--0-4-0-1--1-1-1-0-----|    |-0-8-8-8-7-|
C#|-0-8-8-8-7--0-4-0-1--1-1-1-0-----| x4 |-0-8-8-8-7-| 
    * * * * *
   (Only once)
              
D#|--------------------|
A#|--------------------|
F#|--------------------|
C#|--------------------|
G#|--------------------|
C#|-0-4-0-1--1-1-0-----| x9 Listen for the 1st time carefully when Chester says "Gone"
PM  . . . .  . . .    
[ Tab from: http://www.guitartabs.cc/tabs/l/linkin_park/hit_the_floor_tab_ver_13.html ]
D#|---------------------------------|    |-----------|
A#|---------------------------------|    |-----------|
F#|---------------------------------|    |-----------|
C#|-0-8-8-8-7--0-4-0-1--1-1-1-0-----|    |-0-8-8-8-7-|
G#|-0-8-8-8-7--0-4-0-1--1-1-1-0-----|    |-0-8-8-8-7-|
C#|-0-8-8-8-7--0-4-0-1--1-1-1-0-----| x4 |-0-8-8-8-7-|      
    * * * * *
D#|---------------------------------------------------------------|
A#|---------------------------------------------------------------|
F#|---------------------------------------------------------------|
C#|-0--0--0--0-3~-0--0--0--0-1~-0--0--0--0-3~-0--0--0--0-1~-------|
G#|-0--0--0--0-3~-0--0--0--0-1~-0--0--0--0-3~-0--0--0--0-1~-------|
C#|-0--0--0--0-3~-0--0--0--0-1~-0--0--0--0-3~-0--0--0--0-1~-------|

D#|--------------------|
A#|--------------------|
F#|--------------------|
C#|--------------------|
G#|--------------------|
C#|-0-4-0-1--1-1-0-----| x4
PM  . . . .  . . .    
D#|---------------------------------|    
A#|---------------------------------|    
F#|---------------------------------|    
C#|-0-4-0-1--1-1-1-0--0-8-8-8-7-----|    
G#|-0-4-0-1--1-1-1-0--0-8-8-8-7-----|    
C#|-0-4-0-1--1-1-1-0--0-8-8-8-7-----| x4
Wait till Chester is done screaming "One minute your on top!"

D#|---------------------------------------------------------------|
A#|---------------------------------------------------------------|
F#|---------------------------------------------------------------|
C#|-0--0--0--0-3~-0--0--0--0-1~-0--0--0--0-3~-0--0--0--0-1~-------|
G#|-0--0--0--0-3~-0--0--0--0-1~-0--0--0--0-3~-0--0--0--0-1~-------|
C#|-0--0--0--0-3~-0--0--0--0-1~-0--0--0--0-3~-0--0--0--0-1~-------| x1

D#|---------------------------------|    
A#|---------------------------------|    
F#|---------------------------------|    
C#|-0-4-0-1--1-1-1-0--0-8-8-8-7-----|    
G#|-0-4-0-1--1-1-1-0--0-8-8-8-7-----|    
C#|-0-4-0-1--1-1-1-0--0-8-8-8-7-----| x1
This one is the last one where it sounds like it skips.
Comments