Linkin Park - Hit The Floor Chords & Tabs

 

Hit The Floor Chords & Tabs

Linkin Park Chords & Tabs

Version: 12 Type: Tab 0 ratings
1 star 2 stars 3 stars 4 stars 5 stars
comments

Hit The Floor Tab

LINKIN PARK - "HIT THE FLOOR"
THIS IS A GREAT SONG FROM THEIR NEW ALBUM "METEORA" AND I THINK THAT THIS IS RIGHT SO
HERE WE GO
MY GUITAR IS IN STANDARD TUNING (EADGBE) AND THATS HOW I TABBED IT HERE

INTRO/VERSES
E|---------------|x4
B|---------------|
G|---------------|
D|---------------|
A|---------------|
E|---03-03-332---|

PRE-CHORUS
E|-----------|x1
B|-----------|
G|-----------|
D|-----------|
A|---05554---|
E|---05554---|

CHORUS
E|----------------------|x4
B|----------------------|
G|----------------------|
D|----------------------|
A|---03-03-332--05554---|
E|---03-03-332--05554---|

INTRO/VERSES
E|---------------|x8
B|---------------|
G|---------------|
D|---------------|
A|---------------|
E|---03-03-332---|

PRE-CHORUS
E|-----------|x1
B|-----------|
G|-----------|
D|-----------|
A|---05554---|
E|---05554---|

CHORUS
E|----------------------|x4
B|----------------------|
G|----------------------|
D|----------------------|
A|---03-03-332--05554---|
E|---03-03-332--05554---|

INTRO/VERSES
E|---------------|x9
B|---------------|
G|---------------|
D|---------------|
A|---------------|
E|---03-03-332---|

PRE-CHORUS
E|-----------|x1
B|-----------|
G|-----------|
D|-----------|
A|---05554---|
E|---05554---|
[ Tab from: http://www.guitartabs.cc/tabs/l/linkin_park/hit_the_floor_tab_ver_12.html ]
CHORUS
E|----------------------|x4
B|----------------------|
G|----------------------|
D|----------------------|
A|---03-03-332--05554---|
E|---03-03-332--05554---|

BRIDGE
E|------------------------|x2
B|------------------------|
G|------------------------|
D|------------------------|
A|---3-3-3-34--3-3-3-35---|
E|---3-3-3-34--3-3-3-35---|

INTRO/VERSES
E|---------------|x4
B|---------------|
G|---------------|
D|---------------|
A|---------------|
E|---03-03-332---|

CHORUS
E|----------------------|x4
B|----------------------|
G|----------------------|
D|----------------------|
A|---03-03-332--05554---|
E|---03-03-332--05554---|

BRIDGE
E|------------------------|x2
B|------------------------|
G|------------------------|
D|------------------------|
A|---3-3-3-34--3-3-3-35---|
E|---3-3-3-34--3-3-3-35---|

CHORUS
E|----------------------|x1
B|----------------------|
G|----------------------|
D|----------------------|
A|---03-03-332--05554---|
E|---03-03-332--05554---|



ORDER OF SONG:

INTRO/VERSES........4x
PRE-CHORUS..........1x
CHORUS..............4x
INTRO/VERSES........8x
PRE-CHORUS..........1x
CHORUS..............4x
INTRO/VERSES........9x
PRE-CHORUS..........1x
CHORUS..............4x
BRIDGE..............2x
INTRO/VERSES........4x
CHORUS..............4x
BRIDGE..............2x
CHORUS..............1x
Comments