Linkin Park - Hit The Floor Chords & Tabs

 

Hit The Floor Chords & Tabs

Linkin Park Chords & Tabs

Version: 11 Type: Tab 0 ratings
1 star 2 stars 3 stars 4 stars 5 stars
comments

Hit The Floor Tab

TUNING: Drop D, Down One-Half Step

Intro
Eb|-----------------------------------------------------------------------------
Bb|-----------------------------------------------------------------------------
Gb|-----------------------------------------------------------------------------
Db|-----------------------------------------------------------------------------
Ab|-----------------------------|0-8-8-8-7|0-4-0-1-1-1-0--0-8-8-8-7(Repeat 2x)|-
Db|0-4-0-1-1-1-0(Repeat 3 Times)|0-8-8-8-7|0-4-0-1-1-1-0--0-8-8-8-7(Repeat 2x)|-
(With wah-wah pedal at very back) (Normal)

Verse                                     |Chorus
Eb|-----------------------------------------------------------------------------
Bb|-----------------------------------------------------------------------------
Gb|-----------------------------------------------------------------------------
Db|-----------------------------------------------------------------------------
Ab|-----------------------------|0-8-8-8-7|0-4-0-1-1-1-0--0-8-8-8-7(Repeat 3x)|-
Db|0-4-0-1-1-1-0(Repeat 7 Times)|0-8-8-8-7|0-4-0-1-1-1-0--0-8-8-8-7(Repeat 3x)|-
  [There are just so many...]   [One minute you're on top...]
(With wah-wah pedal at very back) (Normal)

{Play verse and chorus again}
[ Tab from: http://www.guitartabs.cc/tabs/l/linkin_park/hit_the_floor_tab_ver_11.html ]
Break (Play twice)
Eb|-----------------------------------------------------------------------------
Bb|-----------------------------------------------------------------------------
Gb|-----------------------------------------------------------------------------
Db|0-0-0-5-5|0-0-0-1-1|---------------------------------------------------------
Ab|0-0-0-3-3|0-0-0-1-1|---------------------------------------------------------
Db|0-0-0-3-3|0-0-0-1-1|---------------------------------------------------------
  [And then it's all gone]
  (Normal)

Bridge
Eb|-----------------------------------------------------------------------------
Bb|-----------------------------------------------------------------------------
Gb|-----------------------------------------------------------------------------
Db|-----------------------------------------------------------------------------
Ab|-----------------------------------------------------------------------------
Db|0-4-0-1-1-1-0|(Repeat 3 Times)|----------------------------------------------
  [I know I'll never trust...]
(With wah-wah pedal at very back)

{Play chorus and break again}

Outro
Eb|-----------------------------------------------------------------------------
Bb|-----------------------------------------------------------------------------
Gb|-----------------------------------------------------------------------------
Db|-----------------------------------------------------------------------------
Ab|0-4-0-1-1-1-0|0-8-8-8-7|0-4-0-1-1-1-0|---------------------------------------
Db|0-4-0-1-1-1-0|0-8-8-8-7|0-4-0-1-1-1-0|---------------------------------------
  (Normal)         (Digitally remixed)
Comments