Linkin Park - From The Inside Chords & Tabs

 

From The Inside Chords & Tabs

Linkin Park Chords & Tabs

Version: 9 Type: Tab 0 ratings
1 star 2 stars 3 stars 4 stars 5 stars
comments

From The Inside Tab

-----------------------------------------------------------------------------
			     From The Inside - Linkin Park
-----------------------------------------------------------------------------
Tabbed by: Shifty
Email: av_Shifty_lp@hotmail.com

Tuning: Standard

[Chorus 00:07 - 00:22]
-|BRAD-&-MIKE---------------------------------------|-
-|--------------------------------------------------|-
-|--------------------------------------------------|-
-|-00-0-000-0-033-3-333-3-388-8-888-8-855-5-577-7-7-|-
-|-00-0-000-0-033-3-333-3-388-8-888-8-855-5-577-7-7-|-
-|-00-0-000-0-033-3-333-3-388-8-888-8-855-5-577-7-7-|-
Play twice


[Verse 00:22 - 00:41] I don't know who to trust...
-|-5---5---5---------------|- -|-5---5---5---------------|-
-|-------------5---5---6---|- -|-------------5---5---5---|-
-|---7---7---7---7---7---7-|- -|---7---7---7---7---7---7-|-
-|-------------------------|- -|-------------------------|-
-|BRAD---------------------|- -|BRAD---------------------|-
-|-------------------------|- -|-------------------------|-
Play four times Play once
Clean tone


[Verse Con't 00:41 - 00:52] Every time I try...
-|-5---5---5---------------|--|-5---5---5---------------|--|-5---|-
-|-------------5---5---6---|--|-------------5---5---5---|--|-----|-
-|---7---7---7---7---7---7-|--|---7---7---7---7---7---7-|--|---7-|-
-|-------------------------|--|-------------------------|--|-----|-
-|BRAD---------------------|--|BRAD---------------------|--|BRAD-|-
-|-------------------------|--|-------------------------|--|-----|-
Play once Play once Play five times


[Pre-Chorus 00:52 - 00:52]
-|BRAD-&-MIKE--|-
-|-------------|-
-|-------------|-
-|-------------|-
-|-------------|-
-|-*5-*5-*5-*5-|-
Play Once
Distortion


[Chorus 00:52 - 01:07] Take everything from the inside...
-|BRAD-&-MIKE---------------------------------------|-
-|--------------------------------------------------|-
-|--------------------------------------------------|-
-|-00-0-000-0-033-3-333-3-388-8-888-8-855-5-577-7-7-|-
-|-00-0-000-0-033-3-333-3-388-8-888-8-855-5-577-7-7-|-
-|-00-0-000-0-033-3-333-3-388-8-888-8-855-5-577-7-7-|-
Play twice


[Verse 01:07 - 01:26] Tension is building inside...
-|-5---5---5---------------|- -|-5---5---5---------------|-
-|-------------5---5---6---|- -|-------------5---5---5---|-
-|---7---7---7---7---7---7-|- -|---7---7---7---7---7---7-|-
-|-------------------------|- -|-------------------------|-
-|BRAD---------------------|- -|BRAD---------------------|-
-|-------------------------|- -|-------------------------|-
Play four times Play once
Clean tone

[ Tab from: http://www.guitartabs.cc/tabs/l/linkin_park/from_the_inside_tab_ver_9.html ]
[Verse Con't 01:26 - 01:37] Every time I try...
-|-5---5---5---------------|--|-5---5---5---------------|--|-5---|-
-|-------------5---5---6---|--|-------------5---5---5---|--|-----|-
-|---7---7---7---7---7---7-|--|---7---7---7---7---7---7-|--|---7-|-
-|-------------------------|--|-------------------------|--|-----|-
-|BRAD---------------------|--|BRAD---------------------|--|BRAD-|-
-|-------------------------|--|-------------------------|--|-----|-
Play once Play once Play five times


[Pre-Chorus 01:37 - 01:37]
-|BRAD-&-MIKE--|-
-|-------------|-
-|-------------|-
-|-------------|-
-|-------------|-
-|-*5-*5-*5-*5-|-
Play Once
Distortion


[Chorus 01:37 - 01:45] Take everything from the inside...
-|BRAD-&-MIKE---------------------------------------|-
-|--------------------------------------------------|-
-|--------------------------------------------------|-
-|-00-0-000-0-033-3-333-3-388-8-888-8-855-5-577-7-7-|-
-|-00-0-000-0-033-3-333-3-388-8-888-8-855-5-577-7-7-|-
-|-00-0-000-0-033-3-333-3-388-8-888-8-855-5-577-7-7-|-
Play Once


[Chorus Con't 01:45 - 01:53] Away, cuz I swear...
-|BRAD-&-MIKE---------------------------------------|-
-|--------------------------------------------------|-
-|--------------------------------------------------|-
-|-00-0-000-0-033-3-333-3-388-8-888-8-877-7-777-7-7-|-
-|-00-0-000-0-033-3-333-3-388-8-888-8-877-7-777-7-7-|-
-|-00-0-000-0-033-3-333-3-388-8-888-8-877-7-777-7-7-|-
Play Once


[Bridge 01:53 - 01:59]
-|BRAD-&-MIKE---------------------|-
-|--------------------------------|-
-|--------------------------------|-
-|-00-0-0--00-0-0--00-0-0--11-1-1-|-
-|-00-0-0--00-0-0--00-0-0--11-1-1-|-
-|-00-0-0--00-0-0--00-0-0--11-1-1-|-
Play Once (Don't let these chords ring)


[Bridge Con't 01:59 - 02:17] You...
-|BRAD-&-MIKE---------------------------------------------|-
-|--------------------------------------------------------|-
-|--------------------------------------------------------|-
-|-00-0-0----0-1-00-0-0----0-1-00-0-0----0-1-11-1-111-1-1-|-
-|-00-0-0-*7-0-1-00-0-0-*7-0-1-00-0-0-*7-0-1-11-1-111-1-1-|-
-|-00-0-0----0-1-00-0-0----0-1-00-0-0----0-1-11-1-111-1-1-|-
Play twice (Don't let these chords ring)


[Chorus 02:20 - 02:23] Inside...
-|BRAD-&-MIKE---------------|-
-|--------------------------|-
-|--------------------------|-
-|-88-8-888-8-855-5-577-7-7-|-
-|-88-8-888-8-855-5-577-7-7-|-
-|-88-8-888-8-855-5-577-7-7-|-
Play Once


[Chorus Con't 02:23 - 02:38] Away, cuz I swear...
-|BRAD-&-MIKE---------------------------------------|-
-|--------------------------------------------------|-
-|--------------------------------------------------|-
-|-00-0-000-0-033-3-333-3-388-8-888-8-855-5-577-7-7-|-
-|-00-0-000-0-033-3-333-3-388-8-888-8-855-5-577-7-7-|-
-|-00-0-000-0-033-3-333-3-388-8-888-8-855-5-577-7-7-|-
Play twice


[Chorus Con't 02:38 - 02:46] Away, cuz I swear...
-|BRAD-&-MIKE---------------------------------------|-
-|--------------------------------------------------|-
-|--------------------------------------------------|-
-|-00-0-000-0-033-3-333-3-388-8-888-8-877-7-777-7-7-|-
-|-00-0-000-0-033-3-333-3-388-8-888-8-877-7-777-7-7-|-
-|-00-0-000-0-033-3-333-3-388-8-888-8-877-7-777-7-7-|-
Play Once


[Outro 02:46 - 02:53] You...
-|BRAD-&-MIKE---------------------|-
-|--------------------------------|-
-|--------------------------------|-
-|-00-0-0--00-0-0--00-0-0--00-0-0-|-
-|-00-0-0--00-0-0--00-0-0--00-0-0-|-
-|-00-0-0--00-0-0--00-0-0--00-0-0-|-
Play Once (Don't let these chords ring)
Comments