Linkin Park - From The Inside Chords & Tabs

 

From The Inside Chords & Tabs

Linkin Park Chords & Tabs

Version: 8 Type: Tab 0 ratings
1 star 2 stars 3 stars 4 stars 5 stars
comments

From The Inside Tab

Linkin Park
From the Inside

Tuning:eBGDAE
Tabbed by:Killl_Roy

Intro
E------------------------------]
B-9---9---7---9---9---7--------]
G---6---6---6---6---6---6------]
D------------------------------]
A------------------------------]
E------------------------------]
(follow the song)

E-----------------------
B-----------------------
G-----------------------
D--x---x---7---4---6----
A--4---7---7---4---6----
E--4---7---x---x---x----X2
[ Tab from: http://www.guitartabs.cc/tabs/l/linkin_park/from_the_inside_tab_ver_8.html ]
Verse (supposedly played on the piano but we can all improvise right?=P)
E------------------------------------------------------
B--9---9---9---7---7---7---5---5---5---4---4---5-------
G----6---6---6---6---6---6---6---6---6---6---6---6-----
D------------------------------------------------------
A------------------------------------------------------
E------------------------------------------------------

Chorus
E----------------------
B----------------------
G----------------------
D--x---x---7---4---6---
A--4---7---7---4---6---
E--4---7---x---x---x---

Pre Bridge
E----------------------
B----------------------
G----------------------
D--x---x---7---6-------
A--4---7---7---6-------
E--4---7---x---x-------

Bridge
E-------------------------------------------------------
B-------------------------------------------------------
G------------------------------8------------8-----------
D---x-x--x-x-x----x-x-x---x-x--x-x-x---x-x--x-x-x---x-x-
A---4-4--4-4-4----5-5-5---4-4--6-6-7---4-4--6-6-7---7-7-
E---4-4--4-4-4----5-5-5---4-4----6-7---4-4----6-7---7-7-

The rest are just repeats, you'll get it..
Comments