Linkin Park - From The Inside Chords & Tabs

 

From The Inside Chords & Tabs

Linkin Park Chords & Tabs

Version: 4 Type: Tab 0 ratings
1 star 2 stars 3 stars 4 stars 5 stars
comments

From The Inside Tab

   
===============================================================================	
		     "£!nK!n ŽaRk - FROM THE INSIDE
===============================================================================

Tabbed by "£!nK!n Ža(°
========MEXICO========

INTRO (2x)

e|---------------------------------------------------------------------------|
B|---------------------------------------------------------------------------|
G|---------------------------------------------------------------------------|
D|-1--1-1-1-1-1-4--4-4-4-4-4-9--9-9-9-6-6-6-8-8-8-1--------------------------|
A|-1--1-1-1-1-1-4--4-4-4-4-4-9--9-9-9-6-6-6-8-8-8-1--------------------------|
E|-1--1-1-1-1-1-4--4-4-4-4-4-9--9-9-9-6-6-6-8-8-8-1--------------------------|


CHORUS

e|---------------------------------------------------------------------------|
B|---------------------------------------------------------------------------|
G|---------------------------------------------------------------------------|
D|-00-00-1--1-1-1-1-1-4--4-4-4-4-4-9--9-9-9-6-6-6-8-8-8----------------------|
A|-00-00-1--1-1-1-1-1-4--4-4-4-4-4-9--9-9-9-6-6-6-8-8-8----------------------|
E|-00-00-1--1-1-1-1-1-4--4-4-4-4-4-9--9-9-9-6-6-6-8-8-8----------------------|

e|---------------------------------------------------------------------------|
B|---------------------------------------------------------------------------|
G|---------------------------------------------------------------------------|
D|-1--1-1-1-1-1-4--4-4-4-4-4-9--9-9-9-6-6-6-8-8-8----------------------------|
A|-1--1-1-1-1-1-4--4-4-4-4-4-9--9-9-9-6-6-6-8-8-8----------------------------|
E|-1--1-1-1-1-1-4--4-4-4-4-4-9--9-9-9-6-6-6-8-8-8----------------------------|



BRIDGE
[ Tab from: http://www.guitartabs.cc/tabs/l/linkin_park/from_the_inside_tab_ver_4.html ]
e|---------------------------------------------------------------------------|
B|---------------------------------------------------------------------------|
G|---------------------------------------------------------------------------|
D|-1-1-1-1x------1-1-1-1x------1-1-1-1x------1-1-1-1h2p1h2-------------------|
A|-1-1-1-1x------1-1-1-1x------1-1-1-1x------1-1-1-1h2p1h2-------------------|
E|-1-1-1-1x------1-1-1-1x------1-1-1-1x------1-1-1-1h2p1h2-------------------|

e|---------------------------------------------------------------------------|
B|---------------------------------------------------------------------------|
G|---------------------------------------------------------------------------|
D|-1-1-1-1/15-2-3--1-1-1-1/15-2-3--1-1-1-1/15-2-3-1-1-1h2p1h2-1-1-1h2p1h2-1--|
A|-1-1-1-1/15-2-3--1-1-1-1/15-2-3--1-1-1-1/15-2-3-1-1-1h2p1h2-1-1-1h2p1h2-1--|
E|-1-1-1-1/15-2-3--1-1-1-1/15-2-3--1-1-1-1/15-2-3-1-1-1h2p1h2-1-1-1h2p1h2-1--|

e|---------------------------------------------------------------------------|
B|---------------------------------------------------------------------------|
G|---------------------------------------------------------------------------|
D|-1-1-1-1/15-2-3--1-1-1-1/15-2-3--1-1-1-1/15-2-3-1-1-1h2p1h2-1-1-1h2p1h2-1--|
A|-1-1-1-1/15-2-3--1-1-1-1/15-2-3--1-1-1-1/15-2-3-1-1-1h2p1h2-1-1-1h2p1h2-1--|
E|-1-1-1-1/15-2-3--1-1-1-1/15-2-3--1-1-1-1/15-2-3-1-1-1h2p1h2-1-1-1h2p1h2-1--|


FINAL PART

e|---------------------------------------------------------------------------|
B|---------------------------------------------------------------------------|
G|---------------------------------------------------------------------------|
D|-1-1-1-1x------1-1-1-1x------1-1-1-1x------1-1-1-1h2p1h2-------------------|
A|-1-1-1-1x------1-1-1-1x------1-1-1-1x------1-1-1-1h2p1h2-------------------|
E|-1-1-1-1x------1-1-1-1x------1-1-1-1x------1-1-1-1h2p1h2-------------------|



| /  slide up
| \  slide down
| h  hammer-on
| p  pull-off
| ~  vibrato
| +  harmonic
| x  Mute note

===============================================================================	
                             ))šar£eNe te aMo((
===============================================================================
Comments