Linkin Park - From The Inside Chords & Tabs

 

From The Inside Chords & Tabs

Linkin Park Chords & Tabs

Version: 3 Type: Tab 0 ratings
1 star 2 stars 3 stars 4 stars 5 stars
comments

From The Inside Tab

[---------------------------------]
[---------From The Inside---------]
[---------------------------------]
                by Linkin Park

Tabbed By - Master-X (Andrew P)
Tuning - Db (Drop D  and a Half Step Down)

This a great song.  I heard if first on the $2 bill concert and i've loved it
ever since.  Its easy to play and has awesome lyrics.  This is about 95% right,
and its how me and my band play it.  So have fun and check this out.  These are
the main parts of the song.  Rythym not included =D






(Intro) - Guitar One **As many times as you want**
----------------------------------------------------------
----------------------------------------------------------
---14----14----12-----------------------------------------
------12----12----12--------------------------------------
----------------------------------------------------------
----------------------------------------------------------

________________________________________________________________________


(Chorus) - Guitar One **8x**
----------------------------------------------------------
----------------------------------------------------------
---14----14----12-----------------------------------------
------12----12----12--------------------------------------
----------------------------------------------------------
----------------------------------------------------------


(Chorus) - Guitar Two **2x**
----------------------------------------------------------
----------------------------------------------------------
----------------------------------------------------------
--0-0-0-0---3-3-3-3---8-8-8-8---5-5---7-7-----------------
--0-0-0-0---3-3-3-3---8-8-8-8---5-5---7-7-----------------
--0-0-0-0---3-3-3-3---8-8-8-8---5-5---7-7-----------------

________________________________________________________________________


(Verse) - Guitar One **8x**
----------------------------------------------------------
----------------------------------------------------------
---14------14------14------12--------12--9--10--12--------
-------12------12------12-------12------------------------
----------------------------------------------------------
----------------------------------------------------------

________________________________________________________________________


(Chorus) - Guitar One **8x**
----------------------------------------------------------
----------------------------------------------------------
---14----14----12-----------------------------------------
------12----12----12--------------------------------------
----------------------------------------------------------
----------------------------------------------------------

(Chorus) - Guitar Two **2x**
----------------------------------------------------------
----------------------------------------------------------
----------------------------------------------------------
--0-0-0-0---3-3-3-3---8-8-8-8---5-5---7-7-----------------
--0-0-0-0---3-3-3-3---8-8-8-8---5-5---7-7-----------------
--0-0-0-0---3-3-3-3---8-8-8-8---5-5---7-7-----------------

________________________________________________________________________


(Verse) - Guitar One **8x**
----------------------------------------------------------
----------------------------------------------------------
---14------14------14------12--------12--9--10--12--------
-------12------12------12-------12------------------------
----------------------------------------------------------
----------------------------------------------------------

________________________________________________________________________

[ Tab from: http://www.guitartabs.cc/tabs/l/linkin_park/from_the_inside_tab_ver_3.html ]
(Chorus) - Guitar One **8x**
----------------------------------------------------------
----------------------------------------------------------
---14----14----12-----------------------------------------
------12----12----12--------------------------------------
----------------------------------------------------------
----------------------------------------------------------

(Chorus) - Guitar Two **2x**
----------------------------------------------------------
----------------------------------------------------------
----------------------------------------------------------
--0-0-0-0---3-3-3-3---8-8-8-8---5-5---7-7-----------------
--0-0-0-0---3-3-3-3---8-8-8-8---5-5---7-7-----------------
--0-0-0-0---3-3-3-3---8-8-8-8---5-5---7-7-----------------

________________________________________________________________________


(Bridge) - Guitar One **Play First One 3x then the second 1x.  Last one play 8x**
-----------------|---------|--------------------------------
-----------------|---------|--------------------------------
-----------------|---------|--------------------------------
--0--0--0--0-0---|-1-1-1-1-|---0-0-0-0-0--1--3--------------
--0--0--0--0-0---|-1-1-1-1-|---0-0-0-0-0--1--3--------------
--0--0--0--0-0---|-1-1-1-1-|---0-0-0-0-0--1--3--------------


(Bridge) - Guitar Two **Play First One 4x. Listen to the song and play the second one 8x**
--------------------|---------------------------------------
--------------------|---------------------------------------
-14----14----12-----|--14------12---------------------------
----12----12----12--|------12-------------------------------
--------------------|---------------------------------------
--------------------|---------------------------------------

________________________________________________________________________


(Chorus) - Guitar One **16x**
----------------------------------------------------------
----------------------------------------------------------
---14----14----12-----------------------------------------
------12----12----12--------------------------------------
----------------------------------------------------------
----------------------------------------------------------

(Chorus) - Guitar Two **Let Guitar One play his part 2 times before u come in.
Play the first part once then repeat the chorus 3x**
----------------------|-------------------------------------------
----------------------|-------------------------------------------
----------------------|-------------------------------------------
--8-8-8-8---5-5--7-7--|-0-0-0-0---3-3-3-3---8-8-8-8---5-5---7-7---
--8-8-8-8---5-5--7-7--|-0-0-0-0---3-3-3-3---8-8-8-8---5-5---7-7---
--8-8-8-8---5-5--7-7--|-0-0-0-0---3-3-3-3---8-8-8-8---5-5---7-7---

________________________________________________________________________


(End) - Guitar One **4x**
----------------------------------------------------------
----------------------------------------------------------
---14----14----12-----------------------------------------
------12----12----12--------------------------------------
----------------------------------------------------------
----------------------------------------------------------

(End) - Guitar Two **4x**
----------------------------------------------------------
----------------------------------------------------------
----------------------------------------------------------
---0-0-0--0-0---------------------------------------------
---0-0-0--0-0---------------------------------------------
---0-0-0--0-0---------------------------------------------

________________________________________________________________________


And that should be it!  If you have any questions...contact me at
PrinceVegeta17x@hotmail.com!  Have fun!
Comments