Linkin Park - From The Inside Chords & Tabs

 

From The Inside Chords & Tabs

Linkin Park Chords & Tabs

Version: 2 Type: Bass Tab 0 ratings
1 star 2 stars 3 stars 4 stars 5 stars
comments

From The Inside Bass Tab

Alright this is pretty much how it goes.


Intro (0:08)
G|------------------------------------------------|
D|------------------------7-7-7-7-7-7-4-4-4-6-6-6-|
A|4-4-4-4-4-4-7-7-7-7-7-7-------------------------|
E|------------------------------------------------| x2

No bass during verse 1

Chorus (0:53)
G|------------------------------------------------|
D|------------------------7-7-7-7-7-7-4-4-4-6-6-6-|
A|4-4-4-4-4-4-7-7-7-7-7-7-------------------------|
E|------------------------------------------------| x2

No bass during verse 2
[ Tab from: http://www.guitartabs.cc/tabs/l/linkin_park/from_the_inside_btab_ver_2.html ]
Chorus (1:38)
G|------------------------------------------------|
D|------------------------7-7-7-7-7-7-4-4-4-6-6-6-|
A|4-4-4-4-4-4-7-7-7-7-7-7-------------------------|
E|------------------------------------------------| x2

Bridge (1:53)
G|-----------|
D|-----------|
A|4-4--4444--|
E|-----------| x3

G|-----------|
D|-----------|
A|4-5--4545--|
E|-----------| x1

G|--------------          -----------|
D|--------------          -----------|
A|4-4--4444--4-5          4-5--4545--|
E|-------------- Play 3x  -----------| Play x1, then repeat one time starting
     here ^^^

Chorus (2:20)
G|------------------------------------------------|
D|------------------------7-7-7-7-7-7-4-4-4-6-6-6-|
A|4-4-4-4-4-4-7-7-7-7-7-7-------------------------|
E|------------------------------------------------| x4

Outro (2:46)
G|-----------|
D|-----------|
A|4-4--4444--|
E|-----------| x4

Thank you, hope this is right.  Have fun.

~/*{SoldierofCheese}*\~
Comments