Linkin Park - Forgotten Chords & Tabs

 

Forgotten Chords & Tabs

Linkin Park Chords & Tabs

Version: 9 Type: Tab 0 ratings
1 star 2 stars 3 stars 4 stars 5 stars
comments

Forgotten Tab

The Main Riff :
D#|-------------------------------------|
A#|-------------------------------------|
F#|-------------------------------------|
C#|-32-222-222-3222-32-222-22-----*5----|
G#|-32-222-222-3222-32-222-22--*5-------|
C#|-32-222-222-3222-32-222-22-----------|
    [PALM MUTE ALL]

Verse:
D#|--------------------------------------|
A#|--------12*---------------------------|
F#|--------------------------------12*---|
C#|------------7*--------10----12*-------|
G#|-----7*----------7*-------------------|
C#|--7*----------------------------------|

Chorus:
D#|-------------------------------------|
A#|-------------------------------------|
F#|------x-9/10-------------------------|
C#|--7-7-x-9/10--10--10-10-10/9-10-10---|
G#|--7-7-x-7/8---10--10-10-10/9-10-10---|
C#|--7-7---------10--10-10-10/9-10-10---|

[ Tab from: http://www.guitartabs.cc/tabs/l/linkin_park/forgotten_tab_ver_9.html ]
Bridge:
D#|-------------------------------|
A#|-------------------------------|
F#|-------------------------------|
C#|-------------------------------|
G#|-------------------------------|
C#|--7-7--5-7--3--3-3-3--2-3-5----|

Heavy Metal part
D#|-------------------------------|
A#|-------------------------------|
F#|-------------------------------|
C#|------------3--3-3-3--2-3-5----|
G#|------------3--3-3-3--2-3-5----|
C#|------------3--3-3-3--2-3-5----|
Bass
D#|-------------------------------|
A#|-------------------------------|
F#|-------------------------------|
C#|--7-7--5-7--3--3-3-3--2-3-5----|
G#|--7-7--5-7--3--3-3-3--2-3-5----|
C#|--7-7--5-7--3--3-3-3--2-3-5----|

Outro
D#|------------------------------------|
A#|------------------------------------|
F#|------------------------------------|
C#|------------------------------------|
G#|-------7-8--------------------------|
C#|--7-7--------10--10-10-10-----------|
Comments