Linkin Park - Forgotten Chords & Tabs

 

Forgotten Chords & Tabs

Linkin Park Chords & Tabs

Version: 6 Type: Tab 0 ratings
1 star 2 stars 3 stars 4 stars 5 stars
comments

Forgotten Tab

   
Song: Linkin Park - Hybrid Theory - Forgotten
Tabbed By: Justin Corbitt | Cobra
Tuning: Dropped D - One Half Step Down
C# G# C# F# A# D#
     
This is my first tab, but I know almost all of it is accurate because I've seen Brad play this in many live videos.
     
<> = Harmonic
 / = Slide ~ = Ring

X 1
 

D#|----------------------------|---------------------------|X
A#|----------------------------|---------------------------|X
F#|----------------------------|---------------------------|X
C#|-3-2--2-2--22---3-2-2-------|--3-2--2-2--22--3-2-2------|X
G#|-3-2--2-2--22---3-2-2---<5>-|--3-2--2-2--22--3-2-2------|X
C#|-3-2--2-2--22---3-2-2--<5>--|--3-2--2-2--22--3-2-2------|X
D#|----------------------------|---------------------------|X
A#|----------------------------|---------------------------|X
F#|----------------------------|---------------------------|X
C#|-3-2--2-2--22---3-2-2-------|--3-2--2-2--22--3-3--2/5---|X
G#|-3-2--2-2--22---3-2-2---<5>-|--3-2--2-2--22--3-3--2/5---|X
C#|-3-2--2-2--22---3-2-2--<5>--|--3-2--2-2--22--3-3--2/5---|X
X 2 - Clean
 

D#|------------------------|-------------------------------|X
A#|------12----------------|------12-----------------------|X
F#|--------14--------------|--------14---------------------|X
C#|----------14-------17---|----------14--------------17---|X
G#|-0-12-------15-0-15-----|-0-12-------15-0-15-h17-15-----|X
C#|------------------------|-------------------------------|X
X 1
 

D#|----------------------------|---------------------------|X
A#|----------------------------|---------------------------|X
F#|----------------------------|---------------------------|X
C#|-3-2--2-2--22---3-2-2-------|--3-2--2-2--22--3-3--2/5---|X
G#|-3-2--2-2--22---3-2-2---[5]-|--3-2--2-2--22--3-3--2/5---|X
C#|-3-2--2-2--22---3-2-2--[5]--|--3-2--2-2--22--3-3--2/5---|X
X 4
 

D#|--------------------------------------------------------|X
A#|--------------------------------------------------------|X
F#|------9/10-10-10--5--5-5-4/5-5--------------------------|X
C#|-7-7--9/10-9--9---5----5-4/5-5--7-7---------------------|X
G#|-7-7--7/9--9--9---3----3-2/3-3--7-7---------------------|X
C#|-7-7----------------------------7-7---------------------|X
Play 1st Section Once, Then X 2 - Clean
 

D#|------------------------|-------------------------------|X
A#|------12----------------|------12-----------------------|X
F#|--------14--------------|--------14---------------------|X
C#|----------14-------17---|----------14--------------17---|X
G#|-0-12-------15-0-15-----|-0-12-------15-0-15-h17-15-----|X
C#|------------------------|-------------------------------|X
X 1
 
[ Tab from: http://www.guitartabs.cc/tabs/l/linkin_park/forgotten_tab_ver_6.html ]
D#|----------------------------|---------------------------|X
A#|----------------------------|---------------------------|X
F#|----------------------------|---------------------------|X
C#|-3-2--2-2--22---3-2-2-------|--3-2--2-2--22--3-2-2------|X
G#|-3-2--2-2--22---3-2-2---<5>-|--3-2--2-2--22--3-2-2------|X
C#|-3-2--2-2--22---3-2-2--<5>--|--3-2--2-2--22--3-2-2------|X
D#|----------------------------|---------------------------|X
A#|----------------------------|---------------------------|X
F#|----------------------------|---------------------------|X
C#|-3-2--2-2--22---3-2-2-------|--3-2--2-2--22--3-3--2/5---|X
G#|-3-2--2-2--22---3-2-2---<5>-|--3-2--2-2--22--3-3--2/5---|X
C#|-3-2--2-2--22---3-2-2--<5>--|--3-2--2-2--22--3-3--2/5---|X
X 4
 

D#|--------------------------------------------------------|X
A#|--------------------------------------------------------|X
F#|------9/10-10-10--5--5-5-4/5-5--------------------------|X
C#|-7-7--9/10-9--9---5----5-4/5-5--7-7---------------------|X
G#|-7-7--7/9--9--9---3----3-2/3-3--7-7---------------------|X
C#|-7-7----------------------------7-7---------------------|X
X 1
 

D#|--------------------------------------------------------|X
A#|--------------------------------------------------------|X
F#|--------------------------------------------------------|X
C#|-3~-2-5---3~-2-5----------------------------------------|X
G#|-3~-2-5---3~-2-5----------------------------------------|X
C#|-3~-2-5---3~-2-5----------------------------------------|X
X 3
 

D#|--------------------------------------------------------|X
A#|--------------------------------------------------------|X
F#|--------------------------------------------------------|X
C#|-7~-5-7-3--2-5------------------------------------------|X
G#|-7~-5-7-3--2-5------------------------------------------|X
C#|-7~-5-7-3--2-5------------------------------------------|X
X 1
 

D#|--------------------------------------------------------|X
A#|--------------------------------------------------------|X
F#|--------------------------------------------------------|X
C#|-2~-3-2--2/5--------------------------------------------|X
G#|-2~-3-2--2/5--------------------------------------------|X
C#|-2~-3-2--2/5--------------------------------------------|X
X 7
 

D#|--------------------------------------------------------|X
A#|--------------------------------------------------------|X
F#|------9/10-10-10--5--5-5-4/5-5--------------------------|X
C#|-7-7--9/10-9--9---5----5-4/5-5--7-7---------------------|X
G#|-7-7--7/9--9--9---3----3-2/3-3--7-7---------------------|X
C#|-7-7----------------------------7-7---------------------|X
X 1 - Clean
 

D#|--------------------------------------------------------|X
A#|--------------------------------------------------------|X
F#|------9/10-10-10--5--5-5-4/5-5--------------------------|X
C#|-7-7--9/10-9--9---5----5-4/5-5--7-7---------------------|X
G#|-7-7--7/9--9--9---3----3-2/3-3--7-7---------------------|X
C#|-7-7----------------------------7-7---------------------|X
Have Fun, Post Any Comments.
Comments