Linkin Park - Forgotten Chords & Tabs

 

Forgotten Chords & Tabs

Linkin Park Chords & Tabs

Version: 2 Type: Tab 0 ratings
1 star 2 stars 3 stars 4 stars 5 stars
comments

Forgotten Tab

   
"Forgotten" by Linkin Park
Tabbed by Caelum
caelumhades@hotmail.com

This is done for a 6-string, drop D (DADGBe)
It sounds pretty good.

Intro:
-----------------------------
-----------------------------
----------------------5*----- *=harmonic, but I'm not
-2/1-1-1-1--2/1-1--5*--------  positive on those
-2/1-1-1-1--2/1-1------------
-2/1-1-1-1--2/1-1------------

Lead-in to verse:
---------------
---------------
---------------
-2-2--1--4-----
-2-2--1--4-----
-2-2--1--4-----

Verse:
[ Tab from: http://www.guitartabs.cc/tabs/l/linkin_park/forgotten_tab_ver_2.html ]
I am clueless to what Brad does here.
If you know what's going on send me
an e-mail

Do the intro again, then chorus:
--------------------------------
--------------------------------
-------8/9-9-9-------------------
6-6-6--8/9-9-9--9-9-9--8/9--9-9-6---
6-6-6--6/7-7-7--9-9-9--8/9--9-9-6---
6-6-6-----------9-9-9--8/9--9-9-6---

Bridge:
-------------------------
-------------------------
-------------------------
6--6--4/6--2--2-2-2--1-2-4--
6--6--4/6--2--2-2-2--1-2-4--
6--6--4/6--2--2-2-2--1-2-4--

Listen to the track to see when to
palm mute and when not to.

Comments/Suggestion? mail me
Comments