Linkin Park - Forgotten Chords & Tabs

 

Forgotten Chords & Tabs

Linkin Park Chords & Tabs

Version: 1 Type: Tab 0 ratings
1 star 2 stars 3 stars 4 stars 5 stars
comments

Forgotten Tab

   
Artist: Linkin Park 
Album: Hybrid Theory

brendang@myfastmail.com

Tuning: Drop D tuned down one half step (Eb Ab Db Gb Bb Eb)

Key:
* harmonic
 pull-off
/ hammer on

This part is done with heavy distortion

-------------------------------------
-------------------------------------
-------------------------------7*----
-3-2--2-2-----------3-2--2---7*------
-3-2--2-2-----------3-2--2-----------
-3-2--2-2--2-2-2-2--3-2--2-----------
       p.m.------- 
Fom the top to the bottom...

--------------------------------------------
--------------------------------------------
--------------------------------------------
-3-2--2-2-----------3-2--2-------------------------
-3-2--2-2-----------3-2--2-------------------------
-3-2--2-2--2-2-2-2--3-2--2-----------------------------
       p.m.-------

Second time, replace the last 3 chords  (3-2--2)
                                        (3-2--2)
                                        (3-2--2)
with

-------------------
-------------------
-------------------
-3--3---3-2-5-----
-3--3---3-2-5-----
-3--3---3-2-5-----

[ Tab from: http://www.guitartabs.cc/tabs/l/linkin_park/forgotten_tab.html ]
Verse, done with chorus or clean tone, your choice

Let ring through

-----7--------------------
-------10-----------8-----
---9------9--9----7-------
-7-------------10---------
--------------------------
--------------------------

-----7----------------------
-------10-----------------8-
---9------9--9---97----7---
-7-------------------10-----
----------------------------
----------------------------

This is the chorus, also played clean at the very end
----------------------------------------  ----------------------------------------
------------7/9-9-9---------------------
-7--7--7-7--7/7-7-7-10--10--9/10-10-----
-7--7--7-7--5/7-7-7-10--10--9/10-10-----
-7--7--7-7----------10--10--9/10-10-----
In the memory you'll find me...


Play Twice
---------------------------------
---------------------------------
---------------------------------
-7-7-5-7--3--2-3-----------------
-7-7-5-7--3--2-3-----------------
-7-7-5-7--3--2-3-----------------

--------------------------------
-------------------------------
------------------------------
-2---3---------------------------
-2---3-------------------------
-2---3------------------------

These are the parts in it, listen to the CD to figure out where everything goes.
Comments