Linkin Park - Forgotten Live Chords & Tabs

 

Forgotten Live Chords & Tabs

Linkin Park Chords & Tabs

Version: 1 Type: Tab 0 ratings
1 star 2 stars 3 stars 4 stars 5 stars
comments

Forgotten Live Tab

   
Band: Linkin Park
Song: Forgotten (live)

Tuning: DROPPED D |-Eb-Ab-Db-Gb-Bb-Eb-|

Ontro (Distortion/sustian)                              *   *
|---------------------------------|---------------------------------|
|---------------------------------|---------------------------------|
|---------------------------------|---------------------------------|
|-3---2-----2-----2---------------|-3---2-----2-----2-------5-------|
|-3---2---2-2---2-2-------2-2-2-2-|-3---2---2-2---2-2---5-----------|
|-1---0---0-0---0-0-------0-0-0-0-|-1---0---0-0---0-0---------------|
          .     .         . . . .           .     .          
                                                            *
|---------------------------------|---------------------------------|
|---------------------------------|---------------------------------|
|---------------------------------|-------------------------5-------|
|-3---2-----2-----2---------------|-3---2-----2-----2---X-X-5-------|
|-3---2---2-2---2-2-------2-2-2-2-|-3---2---2-2---2-2---X-X---------|
|-1---0---0-0---0-0-------0-0-0-0-|-1---0---0-0---0-0---X-X-3-------|
          .     .         . . . .           .     .          
                                                        *   *
|---------------------------------|---------------------------------|
|---------------------------------|---------------------------------|
|---------------------------------|---------------------------------|
|-3---2-----2-----2---------------|-3---2-----2-----2-------5-------|
|-3---2---2-2---2-2-------2-2-2-2-|-3---2---2-2---2-2---5-----------|
|-1---0---0-0---0-0-------0-0-0-0-|-1---0---0-0---0-0---------------|
          .     .         . . . .           .     . 
|---------------------------------|---------------------------------|
|---------------------------------|---------------------------------|
|---------------------------------|---------------------------------|
|-3---2-----2-----2---------------|-3-------3-------2---/-/-5-----/-|
|-3---2---2-2---2-2-------2-2-2-2-|-3-------3-------2---/-/-5-----/-|
|-1---0---0-0---0-0-------0-0-0-0-|-1-------1-------0---/-/-3-----/-|
          .     .         . . . .                            
Verse  (clean/delay/sustian)    2 Times
|---------------------------------|---------------------------------|
|---------------------------------|---------------------------------|
|*--------16------14--------------|----------12---------------------|
|*----14------14------14------14--|-----12--------------------------|
|-12----------------------12------|-15------------------------------|
|---------------------------------|---------------------------------|

|---------------------------------|---------------------------------||
|---------------------------------|---------------------------------||
|---------16------14--------------|------------------12------------*||
|-----14------14------14------14--|-14-h-12------12----------------*||
|-12----------------------12------|----------15---------------------||
|---------------------------------|---------------------------------||

Pre Chorus                                              *   *
|---------------------------------|---------------------------------|
|---------------------------------|---------------------------------|
|---------------------------------|---------------------------------|
|-3---2-----2-----2---------------|-3---2-----2-----2-------5-------|
|-3---2---2-2---2-2-------2-2-2-2-|-3---2---2-2---2-2---5-----------|
|-1---0---0-0---0-0-------0-0-0-0-|-1---0---0-0---0-0---------------|
          .     .         . . . .           .     .
|---------------------------------|---------------------------------|
|---------------------------------|---------------------------------|
|---------------------------------|---------------------------------|
|-3---2-----2-----2---------------|-3-------3-------2---/-/-5-----/-|
|-3---2---2-2---2-2-------2-2-2-2-|-3-------3-------2---/-/-5-----/-|
|-1---0---0-0---0-0-------0-0-0-0-|-1-------1-------0---/-/-3-----/-|
          .     .         . . . .                          
Chorus                          3 Times
|---------------------------------|---------------------------------||
|---------------------------------|---------------------------------||
|*----------------9-9-9-/10--10-\-|-5-------5---5---5-5-4-/-5---/-7*||
|*7-------7-------9-9-9-/10--10-\-|-5-------5---5---5-5-4-/-5---/-7*||
|-7-------7-------7-7-7-/-8---8-\-|-3-------3---3---3-3-2-/-3---/-5-||
|-5-------5-----------------------|---------------------------------||

|---------------------------------|---------------------------------|
|---------------------------------|---------------------------------|
|-----------------9-9-9-/10--10-\-|-5-------5---5---5-5-4-/-5-------|
|-7-------7-------9-9-9-/10--10-\-|-5-------5---5---5-5-4-/-5-------|
|-7-------7-------7-7-7-/-8---8-\-|-3-------3---3---3-3-2-/-3-------|
|-5-------5-----------------------|---------------------------------|


Pre Verse (clean/delay/sustian)
|---------------------------------|------------------------|
|---------------------------------|------------------------|
|---------16------14--------------|----------12------------|
|-----14------14------14------14--|------12----------------|
|-12----------------------12------|--15--------------------|
|---------------------------------|------------------------|

Verse                           2 Times
|---------------------------------|---------------------------------|
|---------------------------------|---------------------------------|
|*--------16------14--------------|----------12---------------------|
|*----14------14------14------14--|-----12--------------------------|
|-12----------------------12------|-15------------------------------|
|---------------------------------|---------------------------------|
[ Tab from: http://www.guitartabs.cc/tabs/l/linkin_park/forgotten_live_tab.html ]
|---------------------------------|---------------------------------||
|---------------------------------|---------------------------------||
|---------16------14--------------|------------------12------------*||
|-----14------14------14------14--|-14-h-12------12----------------*||
|-12----------------------12------|----------15---------------------||
|---------------------------------|---------------------------------||

Pre Chorus                                              *   *
|---------------------------------|---------------------------------|
|---------------------------------|---------------------------------|
|---------------------------------|---------------------------------|
|-3---2-----2-----2---------------|-3---2-----2-----2-------5-------|
|-3---2---2-2---2-2-------2-2-2-2-|-3---2---2-2---2-2---5-----------|
|-1---0---0-0---0-0-------0-0-0-0-|-1---0---0-0---0-0---------------|
          .     .         . . . .           .     .          
                                                            *
|---------------------------------|---------------------------------|
|---------------------------------|---------------------------------|
|---------------------------------|-------------------------5-------|
|-3---2-----2-----2---------------|-3---2-----2-----2---X-X-5-------|
|-3---2---2-2---2-2-------2-2-2-2-|-3---2---2-2---2-2---X-X---------|
|-1---0---0-0---0-0-------0-0-0-0-|-1---0---0-0---0-0---X-X-3-------|
          .     .         . . . .           .     .          
                                                        *   *
|---------------------------------|---------------------------------|
|---------------------------------|---------------------------------|
|---------------------------------|---------------------------------|
|-3---2-----2-----2---------------|-3---2-----2-----2-------5-------|
|-3---2---2-2---2-2-------2-2-2-2-|-3---2---2-2---2-2---5-----------|
|-1---0---0-0---0-0-------0-0-0-0-|-1---0---0-0---0-0---------------|
          .     .         . . . .           .     .
|---------------------------------|---------------------------------|
|---------------------------------|---------------------------------|
|---------------------------------|---------------------------------|
|-3---2-----2-----2---------------|-3-------3-------2---/-/-5-----/-|
|-3---2---2-2---2-2-------2-2-2-2-|-3-------3-------2---/-/-5-----/-|
|-1---0---0-0---0-0-------0-0-0-0-|-1-------1-------0---/-/-3-----/-|
          .     .         . . . .                             
Chorus                          3 Times
|---------------------------------|---------------------------------||
|---------------------------------|---------------------------------||
|*----------------9-9-9-/10--10-\-|-5-------5---5---5-5-4-/-5---/-7*||
|*7-------7-------9-9-9-/10--10-\-|-5-------5---5---5-5-4-/-5---/-7*||
|-7-------7-------7-7-7-/-8---8-\-|-3-------3---3---3-3-2-/-3---/-5-||
|-5-------5-----------------------|---------------------------------||

|---------------------------------|---------------------------------|
|---------------------------------|---------------------------------|
|-----------------9-9-9-/10--10-\-|-5-------5---5---5-5-4-/-5-------|
|-7-------7-------9-9-9-/10--10-\-|-5-------5---5---5-5-4-/-5-------|
|-7-------7-------7-7-7-/-8---8-\-|-3-------3---3---3-3-2-/-3-------|
|-5-------5-----------------------|---------------------------------|
 
                                4 Times
|---------------------------------||
|---------------------------------||
|--------------------------------*||
|--------------------------------*||
|---------------------------------||
|---------------------------------||

Bridge                         
|---------------------------------|---------------------------------|
|---------------------------------|---------------------------------|
|---------------------------------|---------------------------------|
|-------------------------3-------|-3-------3-------2-2-2-2-5-5-5-5-|
|-------------------------3-------|-3-------3-------2-2-2-2-5-5-5-5-|
|-------------------------1-------|-1-------1-------0-0-0-0-3-3-3-3-|

|---------------------------------|---------------------------------|
|---------------------------------|---------------------------------|
|---------------------------------|---------------------------------|
|----------------------0--3-------|-3-------3-------2-2-2-2-5-5-5-5-|
|----------------------0--3-------|-3-------3-------2-2-2-2-5-5-5-5-|
|----------------------0--1-------|-1-------1-------0-0-0-0-3-3-3-3-|

then                           3 Times
|---------------------------------|---------------------------------|
|---------------------------------|---------------------------------|
|---------------------------------|---------------------------------|
|-7-------7---5---7-------3-------|-3-------3-------2-2-2-2-5-5-5-5-|
|-7-------7---5---7-------3-------|-3-------3-------2-2-2-2-5-5-5-5-|
|-5-------5---3---5-------1-------|-1-------1-------0-0-0-0-3-3-3-3-|

again then
|---------------------------------|---------------------------------|
|---------------------------------|---------------------------------|
|---------------------------------|---------------------------------|
|-3-------3---3---3-------2-------|-2-------2-------2-2-2-2-5-5-5-5-|
|-3-------3---3---3-------2-------|-2-------2-------2-2-2-2-5-5-5-5-|
|-1-------1---1---1-------0-------|-0-------0-------0-0-0-0-3-3-3-3-|

Chorus                          4 Times
|---------------------------------|---------------------------------||
|---------------------------------|---------------------------------||
|*----------------9-9-9-/10--10-\-|-5-------5---5---5-5-4-/-5---/-7*||
|*7-------7-------9-9-9-/10--10-\-|-5-------5---5---5-5-4-/-5---/-7*||
|-7-------7-------7-7-7-/-8---8-\-|-3-------3---3---3-3-2-/-3---/-5-||
|-5-------5-----------------------|---------------------------------||

Outro (clean/sustian)
|---------------------------------|---------------------------------|
|---------------------------------|---------------------------------|
|-----------------9-9-9-/10--10-\-|-5-------5---5---5-5-4-/-5-------|
|-7-------7-------9-9-9-/10--10-\-|-5-------5---5---5-5-4-/-5-------|
|-7-------7-------7-7-7-/-8---8-\-|-3-------3---3---3-3-2-/-3-------|
|-5-------5-----------------------|---------------------------------|
Comments