Linkin Park - Figure Chords & Tabs

 

Figure Chords & Tabs

Linkin Park Chords & Tabs

Version: 1 Type: Tab 0 ratings
1 star 2 stars 3 stars 4 stars 5 stars
comments

Figure Tab

   
Linkin Park - Figure .09
tablated by Brendon Allan (i_am_hork@hotmail.com)
Taken from Meteora
Dropped D Tuning


Hey there, this tab is the right way to play, at least i think so well it goes to the song anyway, and ive tabbed
it out all in sequence so its easy for ya. Cheers, let me know what ya think, if you can be bothered. Im not
too sure if the bit before the chorus is right cos i havent tried it on guitar yet i just needed to upload
the tab, and also the interlude but im pretty sure thats right, it just sounds different thru my computer
speakers than my stereo ones, it sounds like instead of palm muting the bits, it sounds like its muting the
strings, but i think its right. anyway it sounds good when you play it which is all that matters!!
I also have tabbed Hit the Floor as well which is an awesome song.
L8rs.


Intro
e------------------------------------------------------------------------------------------------------
B------------------------------------------------------------------------------------------------------
G------------------------------------------------------------------------------------------------------
D------------------------------------------------------------------------------------------------------
A----5----------8-------------5----------8-------------5----------8-------------5h6--5h6-----5h6-------
D---------0-------------------------0------------------------0-----------------------------------------


Intro continued                                                                                        
e------------------------------------------------------------------------------------------------------
B------------------------------------------------------------------------------------------------------
G------------------------------------------------------------------------------------------------------
D------------------------------------------------------------------------------------------------------
A----5----------8-------------5----------8-------------5----------8-------------0h1--1-1-1----0--1-----
D---------0-------------------------0------------------------0------------------0h1--1-1-1----0--1-----


Intro A                                                                                   x2 
e-----------------------------------------------------------------------------------------
B-----------------------------------------------------------------------------------------
G-----------------------------------------------------------------------------------------
D-----------------------------------------------------------------------------------------
A----0----5----3--------0----5----3--------0----5----3----------0h1--1-1-1----0--1--------
D----0---------3--------0---------3--------0---------3----------0h1--1-1-1----0--1--------


Verse Riff                                                                                x2
e-----------------------------------------------------------------------------------------
B-----------------------------------------------------------------------------------------
G-----------------------------------------------------------------------------------------
D-----------------------------------------------------------------------------------------
A----0----5-------------0----5-------------0----5---------------0h1--1-1-1----0--1--------
D----0------------------0------------------0--------------------0h1--1-1-1----0--1--------


Verse Riff continued                                                                      x2 
e-----------------------------------------------------------------------------------------
B-----------------------------------------------------------------------------------------
G-----------------------------------------------------------------------------------------
D-----------------------------------------------------------------------------------------
A----0----5----3--------0----5----3--------0----5----3----------0h1--1-1-1----0--1--------
D----0---------3--------0---------3--------0---------3----------0h1--1-1-1----0--1--------


Bit before the Chorus
e---------------------------------------------------------------------
B---------------------------------------------------------------------
G---------------------------------------------------------------------
D---------------------------------------------------------------------
A----0----0----7--------0----0----7--------0----0----7--------0-------
D----0----0----7--------0----0----7--------0----0----7--------0-------


Chorus 1                                                x3
e-------------------------------------------------------
B-------------------------------------------------------
G-------------------------------------------------------
D-------------------------------------------------------
A----0------0--0--8----8--0--3----3--3--5--5--7--7------
D----0------0--0--8----8--0--3----3--3--5--5--7--7------


Chorus 1 continued                                      x1
e-------------------------------------------------------
B-------------------------------------------------------
G-------------------------------------------------------
D-------------------------------------------------------
A----0------0--0--8----8--0--3----3--3--5--5--1--1------
D----0------0--0--8----8--0--3----3--3--5--5--1--1------


Bit after Chorus 1                                                                        x1 
e-----------------------------------------------------------------------------------------
B-----------------------------------------------------------------------------------------
G-----------------------------------------------------------------------------------------
D-----------------------------------------------------------------------------------------
A----0----5----3--------0----5----3--------0----5----3----------0h1--1-1-1----0--1--------
D----0---------3--------0---------3--------0---------3----------0h1--1-1-1----0--1--------

[ Tab from: http://www.guitartabs.cc/tabs/l/linkin_park/figure_tab.html ]
Verse 2 Riff                                                                              x2
e-----------------------------------------------------------------------------------------
B-----------------------------------------------------------------------------------------
G-----------------------------------------------------------------------------------------
D-----------------------------------------------------------------------------------------
A----0----5-------------0----5-------------0----5---------------0h1--1-1-1----0--1--------
D----0------------------0------------------0--------------------0h1--1-1-1----0--1--------


Verse 2 Riff continued                                                                    x2 
e-----------------------------------------------------------------------------------------
B-----------------------------------------------------------------------------------------
G-----------------------------------------------------------------------------------------
D-----------------------------------------------------------------------------------------
A----0----5----3--------0----5----3--------0----5----3----------0h1--1-1-1----0--1--------
D----0---------3--------0---------3--------0---------3----------0h1--1-1-1----0--1--------


Bit before the Chorus 2
e---------------------------------------------------------------------
B---------------------------------------------------------------------
G---------------------------------------------------------------------
D---------------------------------------------------------------------
A----0----0----7--------0----0----7--------0----0----7--------0-------
D----0----0----7--------0----0----7--------0----0----7--------0-------


Chorus 2                                                x3
e-------------------------------------------------------
B-------------------------------------------------------
G-------------------------------------------------------
D-------------------------------------------------------
A----0------0--0--8----8--0--3----3--3--5--5--7--7------
D----0------0--0--8----8--0--3----3--3--5--5--7--7------


Chorus 2 continued                                                             x1
e------------------------------------------------------------------------------
B------------------------------------------------------------------------------
G------------------------------------------------------------------------------
D------------------------------------------------------------------------------
A----0------0--0--8----8--0--3----3--3--5--5--1--1--1--1--1--1--1--1--1--1-----
D----0------0--0--8----8--0--3----3--3--5--5--1--1--1--1--1--1--1--1--1--1-----


After 2nd Chorus Riff (same as intro riff)
e------------------------------------------------------------------------------------------------------
B------------------------------------------------------------------------------------------------------
G------------------------------------------------------------------------------------------------------
D------------------------------------------------------------------------------------------------------
A----5----------8-------------5----------8-------------5----------8-------------5h6--5h6-----5h6-------
D---------0-------------------------0------------------------0-----------------------------------------


continued                                                                                        
e------------------------------------------------------------------------------------------------------
B------------------------------------------------------------------------------------------------------
G------------------------------------------------------------------------------------------------------
D------------------------------------------------------------------------------------------------------
A----5----------8-------------5----------8-------------5----------8-------------0h1--1-1-1----0--1-----
D---------0-------------------------0------------------------0------------------0h1--1-1-1----0--1-----


Interlude                             x3
e-------------------------------------                 e-------------------------------------
B-------------------------------------                 B-------------------------------------
G-------------------------------------        then     G-------------------------------------
D-------------------------------------                 D-------------------------------------
A----1--0--x-xx--2/3--5----5----------                 A----1--0--x-xx--2/3--5----x-x--x-----
D----1--0--x-xx--2/3--5---------------                 D----1--0--x-xx--2/3--5----x-x--x-----
           

Interlude continued                   x3
e-------------------------------------                 e-------------------------------------
B-------------------------------------                 B-------------------------------------
G-------------------------------------        then     G-------------------------------------
D-------------------------------------                 D-------------------------------------
A----1--0--x-xx--2/3--5----5----------                 A----1--0--x-xx--2/3--5----5-5-5-5----
D----1--0--x-xx--2/3--5---------------                 D----1--0--x-xx--2/3--5----5-5-5-5----
           pm__                                                   pm__            pm_____



Chorus 3                                                x7
e-------------------------------------------------------
B-------------------------------------------------------
G-------------------------------------------------------
D-------------------------------------------------------
A----0------0--0--8----8--0--3----3--3--5--5--7--7------
D----0------0--0--8----8--0--3----3--3--5--5--7--7------


Chorus 3 continued                                                               x1
e--------------------------------------------------------------------------------
B--------------------------------------------------------------------------------
G--------------------------------------------------------------------------------
D--------------------------------------------------------------------------------
A----0------0--0--8----8--0--3----3--3--5--5--1--1--1--1--1--1--1--1--1-1-1-1----
D----0------0--0--8----8--0--3----3--3--5--5--1--1--1--1--1--1--1--1--1-1-1-1----

Comments