Linkin Park - Figure 09 Chords & Tabs

 

Figure 09 Chords & Tabs

Linkin Park Chords & Tabs

Version: 5 Type: Tab 0 ratings
1 star 2 stars 3 stars 4 stars 5 stars
comments

Figure 09 Tab

   
-----------------------------------------------------------------------
			     Figure.09 - Linkin Park
-----------------------------------------------------------------------
Tabbed by:B
Drop D, down  step:
C#, G#, C#, F#, A#, D#
They use an octave pedal in this song that's set one octave lower
Guitar 1 Intro:
e|--------------------------------------------------------------------|
B|--------------------------------------------------------------------|
G|--------------------------------------------------------------------|
D|--012p0h312p0h312p0h312/13\12/1312/13\12p0h312p0h312p0h3-----|
A|--------------------------------------------------------------------|
E|--------------------------------------------------------------------|
  D5 Ef5  D5 Ef5
e|-X--X----X--X--|
B|-X--X----X--X--|
G|-X--X----X--X--|
D|-0--1----0--1--|
A|-0--1----0--1--|
E|-0--1----0--1--|
Right when guitar one starts playing the chords guitar 2 plays this:
e|---------------------------------------------------------------|
B|---------------------------------------------------------------|
G|---------------------------------------------------------------|
D|-0h1--1-1-1--0h1--0-12-5-0--12-5-0--12-5-0h1--1-1-1-----------|
A|-0h1--1-1-1--0h1--0----3-0-----3-0-----3-0h1--1-1-1-----------|
E|-0h1--1-1-1--0h1--0-12-3-0--12-3-0--12-3-0h1--1-1-1-----------|
[ Tab from: http://www.guitartabs.cc/tabs/l/linkin_park/figure_09_tab_ver_5.html ]
e|---------------------------------------------|
B|---------------------------------------------|
G|---------------------------------------------|
D|-0-12-5--0--12-5-0--12-50--0h1--1-1-1-0h1--|
A|-0----3--0-----3-0-----30--0h1--1-1-1-0h1--|
E|-0-12-3--0--12-3-0--12-30--0h1--1-1-1-0h1--|
Verse: Guitar 2, play twice
e|--------------------------------------------------------------------|
B|--------------------------------------------------------------------|
G|--------------------------------------------------------------------|
D|-0--12--0--12--0--12-0h1--1-1-1---0h1------------------------------|
A|-0------0------0------0h1--1-1-1---0h1------------------------------|
E|-0--12--0--12--0-12-0h1--1-1-1---0h1------------------------------|
Verse: Guitar 2
e|--------------------------------------------------|
B|--------------------------------------------------|
G|--------------------------------------------------|
D|-0--12-5--0--12-5--0--12-5---0h1--1-1-1---0h1-----|
A|-0-----3--0-----3--0-----3---0h1--1-1-1---0h1-----|
E|-0--12-3--0--12-3--0--12-3---0h1--1-1-1---0h1-----|
Verse: W/ filter effect
e|-------------------------------------|
B|-------------------------------------|
G|-------------------------------------|
D|-0--0---8--0--0---8--0--0---8--0-----|
A|-0--0---8--0--0---8--0--0---8--0-----|
E|-0--0---8--0--0---8--0--0---8--0-----|

Chorus:
e|-X-X-X--X-X-X-X---|
B|-X-X-X--X-X-X-X---|
G|-X-X-X--X-X-X-X---|3X
D|-0-8-10-0-3-5-7---|
A|-0-8-8--0-3-5-7---|
E|-0-8-8--0-3-5-7---|

e|-X-X-X--X-X-X-X--|
B|-X-X-X--X-X-x-X--|
G|-X-X-X--X-X-X-X--|
D|-0-8-10-0-3-7-3--|
A|-0-8-8--0-3-7-3--|
E|-0-8-8--0-3-7-3--|
Then play the verse and chorus
Bridge:
e|-----------------------------------------------------------------|
B|-----------------------------------------------------------------|
G|-----------------------------------------------------------------|
D|-1-0-XXX-0-1-3-16-1-0-XXX-0-1-3-12-1-0-XXX-0-1-3-16-1-0-XXX------|
A|-1-0-XXX-0-1-3----1-0-XXX-0-1-3----1-0-XXX-0-1-3----1-0-XXX------|
E|-1-0-XXX-0-1-3-16-1-0-XXX-0-1-3-12-1-0-XXX-0-1-3-16-1-0-XXX------|

e|-----------------------------------|
B|-----------------------------------|
G|-----------------------------------|
D|-0-1-3-XXX-----1-0-XXX-0-1-3-XXXX--|
A|-0-1-3-XXX-----1-0-XXX-0-1-3-XXXX--|
E|-0-1-3-XXX-----1-0-XXX-0-1-3-XXXX--|
Then Play Chorus again

Outro:
e|-X-X-X-X-X--X-X-X-X-X-X-X--X-X-X-X-X-X-X--X-X-X-X-X-X-X--X-X-X-X--|
B|-X-X-X-X-X--X-X-X-X-X-X-X--X-X-X-X-X-X-X--X-X-X-X-X-X-X--X-X-X-X--|
G|-X-X-X-X-X--X-X-X-X-X-X-X--X-X-X-X-X-X-X--X-X-X-X-X-X-X--X-X-X-X--|
D|-3-7-0-8-10-0-3-5-7-0-8-10-0-3-5-7-0-8-10-0-3-5-7-0-8-10-0-3-7-1--|
A|-3-7-0-8-8--0-3-5-7-0-8-8--0-3-5-7-0-8-8--0-3-5-7-0-8-8--0-3-7-1--|
E|-3-7-0-8-8--0-3-5-7-0-8-8--0-3-5-7-0-8-8--0-3-5-7-0-8-8--0-3-7-1--|

That's it, there are a few chord variations on the second and third time through chorus but not a lot.
Comments