Linkin Park - Figure 09 Chords & Tabs

 

Figure 09 Chords & Tabs

Linkin Park Chords & Tabs

Version: 2 Type: Tab 0 ratings
1 star 2 stars 3 stars 4 stars 5 stars
comments

Figure 09 Tab

   
Linkin Park - Figure.09
TUNING: Drop D, down half step
s=Slide, >=Hammer, ()=Harmonic

Intro
Eb|--------------------------------------------------------------------------
Bb|--------------------------------------------------------------------------
Gb|--------------------------------------------------------------------------
Db|-------------------|-------------|-------------------|0-1-1-1-1-1-0-1|----
Ab|5---8--5---8--5---8|5>6-5>6-6-5>6|5---8--5---8--5---8|0-1-1-1-1-1-0-1|----
Db|--0------0------0--|-------------|--0------0------0--|0-1-1-1-1-1-0-1|----

Riff A
Eb|--------------------------------------------------------------------------
Bb|--------------------------------------------------------------------------
Gb|--------------------------------------------------------------------------
Db|0---5--0---5--0---5--0-1-1-1-1-1-0-1(x2)|---------------------------------
Ab|0-5-3--0-5-3--0-5-3--0-1-1-1-1-1-0-1(x2)|---------------------------------
Db|0---3--0---3--0---3--0-1-1-1-1-1-0-1(x2)|---------------------------------

Verse
Eb|--------------------------------------------------------------------------
Bb|--------------------------------------------------------------------------
Gb|--------------------------------------------------------------------------
Db|0----0----0----0-1-1-1-1-0-1(x2)|0---5--0---5--0---5--0-1-1-1-1-0-1(x2)|--
Ab|0-5--0-5--0-5--0-1-1-1-1-0-1(x2)|0-5-3--0-5-3--0-5-3--0-1-1-1-1-0-1(x2)|--
Db|0----0----0----0-1-1-1-1-0-1(x2)|0---3--0---3--0---3--0-1-1-1-1-0-1(x2)|--

Prechorus (play softly)
Eb|--------------------------------------------------------------------------
Bb|--------------------------------------------------------------------------
Gb|--------------------------------------------------------------------------
Db|0-0-8-0-0-8-0-0-8-0|------------------------------------------------------
Ab|0-0-8-0-0-8-0-0-8-0|------------------------------------------------------
Db|0-0-8-0-0-8-0-0-8-0|------------------------------------------------------
[ Tab from: http://www.guitartabs.cc/tabs/l/linkin_park/figure_09_tab_ver_2.html ]
Chorus
Eb|--------------------------------------------------------------------------
Bb|--------------------------------------------------------------------------
Gb|--------------------------------------------------------------------------
Db|0-0-0-0-10-10-10-0-5-5-5-5-5-5-7-7(x3)|0-0-0-0-10-10-10-0-5-5-5-5-7s1|----
Ab|0-0-0-0-8--8--8--0-3-3-3-3-5-5-7-7(x3)|0-0-0-0-8--8--8--0-5-5-5-5-7s1|----
Db|0-0-0-0-8--8--8--0-3-3-3-3-5-5-7-7(x3)|0-0-0-0-8--8--8--0-5-5-5-5-7s1|----

Repeat Riff A (play only once)
Repeat Verse
Repeat Prechorus
Repeat Chorus
Repeat Intro

Bridge
Eb|--------------------------------------------------------------------------
Bb|--------------------------------------------------------------------------
Gb|--------------------------------------------------------------------------
Db|1-0-x-x-x-0-1-3-x----|1-0-x-x-x-0-1-3-x----|1-0-x-x-x-0-1-3-x----|--------
Ab|1-0-x-x-x-0-1-3-x----|1-0-x-x-x-0-1-3-x----|1-0-x-x-x-0-1-3-x----|--------
Db|1-0-x-x-x-0-1-3-x-(4)|1-0-x-x-x-0-1-3-x-(5)|1-0-x-x-x-0-1-3-x-(4)|--------

Bridge cont'd
Eb|--------------------------------------------------------------------------
Bb|--------------------------------------------------------------------------
Gb|--------------------------------------------------------------------------
Db|1-0-x-x-x-0-1-3-x-x-x-x|--------------------------------------------------
Ab|1-0-x-x-x-0-1-3-x-x-x-x|--------------------------------------------------
Db|1-0-x-x-x-0-1-3-x-x-x-x|--------------------------------------------------

Repeat Bridge
Repeat Chorus
Repeat Chorus

Outro
Eb|--------------------------------------------------------------------------
Bb|--------------------------------------------------------------------------
Gb|--------------------------------------------------------------------------
Db|0-1-1-1-1-1-1-1-1-1|------------------------------------------------------
Ab|0-1-1-1-1-1-1-1-1-1|------------------------------------------------------
Db|0-1-1-1-1-1-1-1-1-1|------------------------------------------------------
Comments