Linkin Park - Figure 09 Chords & Tabs

 

Figure 09 Chords & Tabs

Linkin Park Chords & Tabs

Version: 1 Type: Bass Tab 0 ratings
1 star 2 stars 3 stars 4 stars 5 stars
comments

Figure 09 Bass Tab

(Look at the "Song Order" to know how many times to play the riff)
__________________________________________________________________

Verse 1    0:13    
G|------------------------------------------
D|------------------------------------------
A|--4-5-5-5-5-5-4-5-4--7-4--7-4--7----------
E|------------------------------------------


Verse 2    0:24
G|------------------------------------------
D|------------------------------------------      *(On last time, don't 
A|--4-5-5-5-5-5-4-5-4---4---4---------------        play the last 3  
E|------------------------------------------        chords)*


Chorus     0:49
G|------------------------------------------
D|------------------------------------------
A|--4-4-4-4-4--11-11-11-11-11--7-7-7-7-7----       
E|------------------------------------------

[ Tab from: http://www.guitartabs.cc/tabs/l/linkin_park/figure_09_btab.html ]
Ending Chorus-Part 1 [...Continued]
G|------------------------------------------
D|------------------------------------------
A|--9-9-9-9-11-11-11-11---------------------
E|------------------------------------------


Ending Chorus-Part 2
G|------------------------------------------
D|------------------------------------------      *(On last time, play    
A|--11-11-11-11-5-5-5-5---------------------        Chorus-Part 2 instead
E|------------------------------------------        Of Chorus-Part 1)*


Climax     2:09
G|------------------------------------------
D|------------------------------------------
A|------------------------------------------
E|--1-0--0-0-1-2-3--------------------------


__________________________________________________________________


Song Order :
     Verse 1   x2
     Verse 2   x5
     Chorus    x4
     Climax    x8
     Chorus    x8

__________________________________________________________________

Well, that's about it...I hope you enjoy it!
I am 99.9% correct...I compared it with the cd and i took my time.

Any commments? Concerns?
     E-Mail Me At DarkSparda7@Yahoo.com
Comments