Linkin Park - Faint Chords & Tabs

 

Faint Chords & Tabs

Linkin Park Chords & Tabs

Version: 7 Type: Tab 0 ratings
1 star 2 stars 3 stars 4 stars 5 stars
comments

Faint Tab

   
Linkin Park - Faint
Meteora 2003
Tabbed by: LPMetora21
Email: LeonRedfield@umbrella-inc.com

Tuning: Down Step, then Half Step...Db, Ab, Db, Gb, Bb, Eb
[ Tab from: http://www.guitartabs.cc/tabs/l/linkin_park/faint_tab_ver_7.html ]
INTRO/CHORUS X2
e|---------------------------------------------------------------------------|
B|---------------------------------------------------------------------------|
G|---------------------------------------------------------------------------|
D|00-19-19-17-17-17-17-19-19-15-15-8-8-19-19-17-17-17-17-19-19-15-15---------|
A|00-19-19-17-17-17-17-19-19-15-15-8-8-19-19-17-17-17-17-19-19-15-15---------|
E|00-19-19-17-17-17-17-19-19-15-15-8-8-19-19-17-17-17-17-19-19-15-15---------|

VERSE
e|----------------------------------|
B|----------------------------------|
G|----------------------------------|
D|0------0------0----8----5---------|
A|0------0------0----8----5---------|
E|0------0------0----8----5---------|

CHORUS
VERSE
CHORUS

BRIDGE X4
e|---------------|
B|---------------|
G|---------------|
D|0-7-3-2-3-2----|
A|0-7-3-2-3-2----|
E|0-7-3-2-3-2----|

CHORUS X2
THEN YOU'RE DONE! GOOD LUCK.
Comments