Linkin Park - Faint Chords & Tabs

 

Faint Chords & Tabs

Linkin Park Chords & Tabs

Version: 5 Type: Tab 0 ratings
1 star 2 stars 3 stars 4 stars 5 stars
comments

Faint Tab

Tabbed by: James
This is the Correct way to play Faint.from DVD and by ear
Intro & Chorus
E|-------|-----------------------------------|
B|-------|-----------------------------------|
G|-------|-----------------------------------|
D|-------|-----------------------------------|
A|--7777-|--0-0---7-7---5-5--5-5---7-7--3-3--|
D|--7777-|--0-0---7-7---5-5--5-5---7-7--3-3--|
   |P M |
[ Tab from: http://www.guitartabs.cc/tabs/l/linkin_park/faint_tab_ver_5.html ]
Verse(listen to it...youll figure it out)
|--------------------------------------------------------|
|--------------------------------------------------------|
|--------------------------------------------------------|
|--------------------------------------------------------|
|-------7---------------7-----------------7------5-------|
|-------7---------------7-----------------7------5-------|
Bridge
|--------------------------------------------------------|
|--------------------------------------------------------|
|--------------------------------------------------------|
|--------------------------------------------------------|
|-0--7--5--0--5--0------0--7--5--0--5--0--5--------------|
|-0--7--5--0--5--0------0--7--5--0--5--0--5--------------|
Comments