Linkin Park - Faint Chords & Tabs

 

Faint Chords & Tabs

Linkin Park Chords & Tabs

Version: 12 Type: Tab 0 ratings
1 star 2 stars 3 stars 4 stars 5 stars
comments

Faint Tab

I wanna give the very accurate version of Linkin Park's single 'Faint' tabz.

Tuning: EADGBE



Then:
E ------------------------------------------------------------------
B ------------------------------------------------------------------
G ------------------------------------------------------------------
D ------0007755--5557788--0007755--5557733--------------------------
A ------0007755--5557788--0007755--5557733--------------------------
E -7777-0007755--5557788--0007755--5557733--------------------------

E ------------------------------------------------------------------
B ------------------------------------------------------------------
G ------------------------------------------------------------------
D -0007755--5557788--0007755--5557733-------------------------------
A -0007755--5557788--0007755--5557733-------------------------------
E -0007755--5557788--0007755--5557733-------------------------------

VERSE 1
E ------------------------------------------------------------------
B ------------------------------------------------------------------
G ------------------------------------------------------------------
D -7------7------5-----55-------------------------------------------
A -7------7------5-----55-------------------------------------------
E -7------7------5-----55----7777-----------------------------------
[ Tab from: http://www.guitartabs.cc/tabs/l/linkin_park/faint_tab_ver_12.html ]
CHORUS 
E ------------------------------------------------------------------
B ------------------------------------------------------------------
G ------------------------------------------------------------------
D -0007755--5557788--0007755--5557733-------------------------------
A -0007755--5557788--0007755--5557733-------------------------------
E -0007755--5557788--0007755--5557733-------------------------------

VERSE 2
E ------------------------------------------------------------------
B ------------------------------------------------------------------
G ------------------------------------------------------------------
D -7------7------5-----55-------------------------------------------
A -7------7------5-----55-------------------------------------------
E -7------7------5-----55-------------------------------------------

CHORUS 
E ------------------------------------------------------------------
B ------------------------------------------------------------------
G ------------------------------------------------------------------
D -0007755--5557788--0007755--5557733-------------------------------
A -0007755--5557788--0007755--5557733-------------------------------
E -0007755--5557788--0007755--5557733-------------------------------

BRIDGE:
E ------------------------------------------------------------------
B ------------------------------------------------------------------
G ------------------------------------------------------------------
D -0-7-5-0-5-0-----000-7-5-0-5-0------------------------------------
A -0-7-5-0-5-0-----000-7-5-0-5-0------------------------------------
E -0-7-5-0-5-0-----000-7-5-0-5-0------------------------------------

CHORUS 
E ------------------------------------------------------------------
B ------------------------------------------------------------------
G ------------------------------------------------------------------
D -0007755--5557788--0007755--5557733-------------------------------
A -0007755--5557788--0007755--5557733-------------------------------
E -0007755--5557788--0007755--5557733-------------------------------

Please feel free to comment this tab @ sarch_the_dragon@hotmail.com
Peace out, Sarch.
Comments