Linkin Park - Faint Chords & Tabs

 

Faint Chords & Tabs

Linkin Park Chords & Tabs

Version: 1 Type: Tab 1 rating
1 star 2 stars 3 stars 4 stars 5 stars
comments

Faint Tab

   
Song - Faint
Band - [Linkin Park]           
Album - Meteora 
Tabbed by Cole316

This Tab might not be 100% accurate, but it's my first one, and after watching "The Making Of Meteora" DVD, I tried to get the Tab like the way Brad was playing the song.
I don't know if the song is normal tuned or de-tuned, so you'll have to try and work it out.				          
                                               ^ (Db, Ab, Db, Gb, Bb, Eb.)
Intro.
Eb--------------------
Bb--------------------
Gb--------------------
Db------2-2-2-2 ------
Ab------2-2-2-2-------
Db------0-0-0-0-------
	
Chorus 	                       x4  
Eb---------------------------------
Bb---------------------------------
Gb---------------------------------
Db----2--2-7--5-5----5--5-7-3-3----
Ab----2--2-7--5-5----5--5-7-3-3----
Db----0--0-7--5-5----5--5-7-3-3----

Verse	  x3
Eb--------------------------------------
Bb--------------------------------------
Gb--------------------------------------
Db----2-2-----5-5-----7-7------7-7-7-7--
Ab----2-2-----5-5-----7-7------7-7-7-7--
Db----0-0-----5-5-----7-7------0-0-0-0--
[ Tab from: http://www.guitartabs.cc/tabs/l/linkin_park/faint_tab.html ]
Chorus                            x2
Eb---------------------------------
Bb---------------------------------
Gb---------------------------------
Db----2--2-7--5-5----5--5-7-3-3----
Ab----2--2-7--5-5----5--5-7-3-3----
Db----0--0-7--5-5----5--5-7-3-3----

Verse      x3
Eb-----------------------------------
Bb-----------------------------------
Gb-----------------------------------
Db----2-2---5-5----7-7-------7-7-7-7-
Ab----2-2---5-5----7-7-------7-7-7-7-
Db----0-0---5-5----7-7-------0-0-0-0-

Chorus   	                 x4
Eb-------------------------------
Bb-------------------------------
Gb-------------------------------
Db----2--2-7--5-5----5--5-7-3-3--
Ab----2--2-7--5-5----5--5-7-3-3--
Db----0--0-7--5-5----5--5-7-3-3--

Middle			          x4
Eb--------------------------------
Bb--------------------------------
Gb--------------------------------
Db--------------------------------
Ab--0-7-3-2-3-2----0--7-3-2-3-2---
Db--0-7-3-2-3-2----0--7-3-2-3-2---

Chorus   	                 x8
Eb------------------------------
Bb------------------------------
Gb------------------------------
Db----2--2-7--5-5----5--5-7-3-3-
Ab----2--2-7--5-5----5--5-7-3-3-
Db----0--0-7--5-5----5--5-7-3-3-

Outro.
Eb------------------
Bb------------------
Gb------------------
Db----3---1--0-0----
Ab----3---1--0-0----
Db----3---1--0-0----
Comments