Linkin Park - Faint Chords & Tabs

 

Faint Chords & Tabs

Linkin Park Chords & Tabs

Version: 4 Type: Bass Tab 0 ratings
1 star 2 stars 3 stars 4 stars 5 stars
comments

Faint Bass Tab

   
PlayList:

Intro
Verse
Chorus
Verse
Bridge
Chorus
Outro

-Intro-

G|-----------------------------------|
D|-----------------------------------|
A|-----------------------------------|
E|----------111111-6666666-333-55----|
B|-33333336-----------------------66-|

-Verse-

G|-------------------------|
D|-------------------------|
A|-------------------------|
E|-----------------6-6-----|
B|-3-3--3-3--3--3------1-1-|

-Chorus-

G|-----------------------------------|
D|-----------------------------------|
A|-----------------------------------|
E|----------111111-6666666-333-55----|
B|-33333336-----------------------66-|
[ Tab from: http://www.guitartabs.cc/tabs/l/linkin_park/faint_btab_ver_4.html ]
G|--------------------------------------------|
D|--------------------------------------------|
A|--------------------------------------------|
E|----------111111-6666666-333-55-------------|
B|-33333336-----------------------66-66666666-|

-Bridge-

G|-------------------------|
D|-------------------------| (x4)
A|-------------------------|
E|---5-----------5---------|
B|-3---6-5-6-5-3---6-5-6-5-|

-Outro-

G|-----------------------------------|
D|-----------------------------------|
A|-----------------------------------| (x2)
E|----------111111-6666666-333-55----|
B|-33333336-----------------------66-|

G|-----------------|
D|-----------------|
A|-----------------|
E|-----------------|
B|-6-6-6-6-6-4-4-4-|
Comments