Linkin Park - Faint Chords & Tabs

 

Faint Chords & Tabs

Linkin Park Chords & Tabs

Version: 1 Type: Bass Tab 0 ratings
1 star 2 stars 3 stars 4 stars 5 stars
comments

Faint Bass Tab

Tabbed By : Maazer
e-mail: Maazer01@aol.com

Tuning:Drop-D tuning. If you've ever listened to the bass during the overdrive,
there is a hold on E-flat. 

Intro: No bass

0:15
G|---------------------------------------------------------------------------|
D|---------------------------------------------------------------------------|
A|---4(8)----------0(8)------------------------------------------------------|
D|----------2(8)----------444--666--22---------------------------------------|


G|---------------------------------------------------------------------------|
D|---------------------------------------------------------------------------|
A|---4(8)----------0(8)------------------------------------------------------|
D|----------2(8)----------444--666--22---------------------------------------|

I am. A little bit of...
G|---------------------------------------------------------------------------|
D|---------------------------------------------------------------------------|
A|---44-----44-----44--------22----------------------------------------------|
D|----------------------00---------------------------------------------------|

I can't feel...
G|---------------------------------------------------------------------------|
D|---------------------------------------------------------------------------|
A|---4(8)----------0(8)------------------------------------------------------|
D|----------2(8)----------444--666--22---------------------------------------|
[ Tab from: http://www.guitartabs.cc/tabs/l/linkin_park/faint_btab.html ]
Time wont heal...
G|---------------------------------------------------------------------------|
D|---------------------------------------------------------------------------|
A|---4(8)----------0(8)------------------------------------------------------|
D|----------2(8)----------444--666--22---------------------------------------|


I am. A little bit insecure...
G|---------------------------------------------------------------------------|
D|----------------------0----------------------------------------------------|
A|---44-----44-----44---------22---------------------------------------------|
D|-----------------------0---------------------------------------------------|

I can't feel...
G|---------------------------------------------------------------------------|
D|---------------------------------------------------------------------------|
A|---4(8)----------0(8)------------------------------------------------------|
D|----------2(8)----------444--666--22---------------------------------------|

Time wont heal...
G|---------------------------------------------------------------------------|
D|---------------------------------------------------------------------------|
A|---4(8)----------0(8)------------------------------------------------------|
D|----------2(8)----------444--666--22---------------------------------------|

No! Hear me out now...     ( Repeat this 4 times)
G|---------------------------------------------------------------------------|
D|---------------------------------------------------------------------------|
A|---4---------44------------------------------------------------------------|
D|-----6-2121-----6-2121-----------------------------------------------------|
Comments