Linkin Park - Easier To Run Chords & Tabs

 

Easier To Run Chords & Tabs

Linkin Park Chords & Tabs

Version: 9 Type: Tab 0 ratings
1 star 2 stars 3 stars 4 stars 5 stars
comments

Easier To Run Tab

   
Album: Meteora
Tuning:Dropped D and tuned down a two steps (dropped Bb or A#)

This tab sounds 95% right. Comment the mistakes pls

Verse
C-----------------------------------------------------------|
G-----------------------------------------------------------|
Eb--19--12------15------15--10------------------------------|
Bb-----------12------------------12--10---------------------|
F-----------------------------------------------------------|
Bb----------------------------------------------------------|


Chorus A (Guitar 1)
C-----------------------------------------------------------|
G-----------------------------------------------------------|
Eb----------------------------------------------------------|
Bb--5--5--5------1--1--1------3--3--3------0--0--0----------|
F---5--5--5------1--1--1------3--3--3------0--0--0----------|
Bb--5--5--5------1--1--1------3--3--3------0--0--0----------|

Chorus B (Guitar 2)
C-----------------------------------------------------------|
G-----------------------------------------------------------|
Eb--12--12--12-----12--12--12-----12--12--12-----14--14--14-|
Bb---x---x---x------x---x---x------x---x---x------x---x---x-|
F---10--10--10-----10--10--10-----10--10--10-----12--12--12-|
Bb----------------------------------------------------------|

[ Tab from: http://www.guitartabs.cc/tabs/l/linkin_park/easier_to_run_tab_ver_9.html ]
Bridge A (Guitar 1)
C-----------------------------------------------------------|
G-----------------------------------------------------------|
Eb----------------------------------------------------------|
Bb--1--1--1------3--3--3-------5--5--5------0--0--0---------|
F---1--1--1------3--3--3-------5--5--5------0--0--0---------|
Bb--1--1--1------3--3--3-------5--5--5------0--0--0---------|

(Continued)
C-----------------------------------------------------------|
G-----------------------------------------------------------|
Eb----------------------------------------------------------|
Bb--1--1--1------3--3--3-------3--3--3------3--3--3---------|
F---1--1--1------3--3--3-------3--3--3------3--3--3---------|
Bb--1--1--1------3--3--3-------3--3--3------3--3--3---------|


Bridge B (Guitar 2)
C-----------------------------------------------------------|
G-----------------------------------------------------------|
Eb--12--12--12-----12--12--12-----12--12--12-----10--10--10-|
Bb---x---x---x------x---x---x------x---x---x------x---x---x-|
F---10--10--10-----10--10--10-----10--10--10------8---8---8-|
Bb----------------------------------------------------------|

Verse
Chorus A, B
Verse
Chorus A, B
Verse
Bridge A, B
Chorus A, B
Comments