Linkin Park - Easier To Run Chords & Tabs

 

Easier To Run Chords & Tabs

Linkin Park Chords & Tabs

Version: 7 Type: Tab 0 ratings
1 star 2 stars 3 stars 4 stars 5 stars
comments

Easier To Run Tab

tabbed by: jae
email : ako_lalake@yahoo.com
corrections just email me.
a little more accurate on the main riff than the other tabs.

Intro & Verse:
Eb|--------------------------------------|
Bb|----00-----8-----87---0-------------|
Gb|---------0-----------------2----------|  x4
Db|--------------------------------------|
Ab|--------------------------------------|
Db|--------------------------------------|
[ Tab from: http://www.guitartabs.cc/tabs/l/linkin_park/easier_to_run_tab_ver_7.html ]
Chorus:
Eb|--------------------|
Bb|--------------------|
Gb|--------------------|
Db|-7-7--3-3--5-5--2-2-|
Ab|-7-7--3-3--5-5--2-2-|
Db|-7-7--3-3--5-5--2-2-|

Bridge:
Eb|-----------------------------------------|
Bb|-----------------------------------------|
Gb|-----------------------------------------|
Db|-3-3---5-5---7-7---2-2---3-3---5-5--5-5--|
Ab|-3-3---5-5---7-7---2-2---3-3---5-5--5-5--|
Db|-3-3---5-5---7-7---2-2---3-3---5-5--5-5--|

Storyline:

Intro
Chorus
Verse1
Chorus
Verse2
Bridge
Chorus x4
Comments