Linkin Park - Easier To Run Chords & Tabs

 

Easier To Run Chords & Tabs

Linkin Park Chords & Tabs

Version: 5 Type: Tab 0 ratings
1 star 2 stars 3 stars 4 stars 5 stars
comments

Easier To Run Tab

   
-----------------------------------------------------------------------
                      Easier To Run  Linkin Park
                               Meteora
-----------------------------------------------------------------------

Tabbed by: Grea$e
Email: l33t_grease@hotmail.com

Tuning: Guitar 1: Drop D &  Step Down (Db, Ab, Db, Gb, Bb, Eb)
        Guitar 2: Bb (A#) Tuning (Bb, F, Bb, Eb, G, C)

Intro: Guitar 1
Eb|---------------------------------------|
Bb|----0x0x------8----8x7x------10------|
Gb|-----------0x--------------0x----------|  x4
Db|---------------------------------------|
Ab|---------------------------------------|
Db|---------------------------------------|

Chorus: Guitar 1
eb|----------------------------------------|
Bb|----------------------------------------|
Gb|-9-9-9-9--9-9-9-9--9-9-9-9--11-11-11-11-|
Db|-x-x-x-x--x-x-x-x--x-x-x-x--x--x--x--x--|
Ab|-7-7-7-7--7-7-7-7--7-7-7-7--9--9--9--9--|
Db|----------------------------------------|

eb|-----------------------------------------|
Bb|-----------------------------------------|
Gb|-9-9-9-9--9-9-9-9--11-11-11-11--9-9-9-9--|
Db|-x-x-x-x--x-x-x-x--x--x--x--x---x-x-x-x--|
Ab|-7-7-7-7--7-7-7-7--9--9--9--9---7-7-7-7--|
Db|-----------------------------------------|
(Strumming Pattern Not shown, But You Get The Idea)

Chorus: Guitar 2
C |--------------------|
G |--------------------|
Eb|--------------------|   x2
Bb|-5-5--1-1--3-3--0-0-|
F |-5-5--1-1--3-3--0-0-|
Bb|-5-5--1-1--3-3--0-0-|
[ Tab from: http://www.guitartabs.cc/tabs/l/linkin_park/easier_to_run_tab_ver_5.html ]
Verse: Guitar 1
Eb|---------------------------------------|
Bb|----0x0x------8----8x7x------10------|
Gb|-----------0x--------------0x----------|
Db|---------------------------------------|
Ab|---------------------------------------|
Db|---------------------------------------|

Bridge: Guitar 1
eb|-------------------------------------|
Bb|-------------------------------------|
Gb|-9-9-9-9--9-9-9-9--9-9-9-9--7-7-7-7--|
Db|-x-x-x-x--x-x-x-x--x-x-x-x--x-x-x-x--|
Ab|-7-7-7-7--7-7-7-7--7-7-7-7--5-5-5-5--|
Db|-------------------------------------|

eb|----------------------------------------|
Bb|----------------------------------------|
Gb|-9-9-9-9--9-9-9-9--9-9-9-9--11-11-11-11-|
Db|-x-x-x-x--x-x-x-x--x-x-x-x--x--x--x--x--|
Ab|-7-7-7-7--7-7-7-7--7-7-7-7--9--9--9--9--|
Db|----------------------------------------|

Bridge: Guitar 2
C |-----------------------------------------|
G |-----------------------------------------|
Eb|-----------------------------------------|
Bb|-1-1---3-3---5-5---0-0---1-1---3-3--3-3--|
F |-1-1---3-3---5-5---0-0---1-1---3-3--3-3--|
Bb|-1-1---3-3---5-5---0-0---1-1---3-3--3-3--|


End: Guitar 1
eb|-------------------------------------------|
Bb|-------------------------------------------|
Gb|--11-11-11-11-11-11-11-11-11-11-11-11--7~--|
Db|--x--x--x--x--x--x--x--x--x--x--x--x---x~--|
Ab|--9--9--9--9--9--9--9--9--9--9--9--9---5~--|
Db|-------------------------------------------|

End: Guitar 2
C |-------------------------------------------|
G |-------------------------------------------|
Eb|-------------------------------------------|
Bb|-0---0---0---0---0---0---0---0---0---0-----|
F |-0---0---0---0---0---0---0---0---0---0-----|
Bb|-0---0---0---0---0---0---0---0---0---0--5+-|


Intro:
Chorus:
Verse: x9
Chorus:
Verse: x8
Bridge:
Chorus: x2
End:

Try this guys, it sounds pretty right to me. But its only a guide.
Please send me corrections and comments to my email. 

NB: Intro by Luis Munoz (LamaGua@aol.com)

| /  slide up
| \  slide down
| h  hammer-on
| p  pull-off
| ~  vibrato
| +  harmonic
| x  Mute note
=======================================================================
Comments