Linkin Park - Easier To Run Chords & Tabs

 

Easier To Run Chords & Tabs

Linkin Park Chords & Tabs

Version: 3 Type: Tab 0 ratings
1 star 2 stars 3 stars 4 stars 5 stars
comments

Easier To Run Tab

Linkin Park - Easier To Run
Tabbed by - Master-X (Andrew P)
Tuning - Drop D

Linkin Park doesn't play in Drop D, but in Drop D Half Step (Db).  My guitar
is tuned in Drop D tho, and you can play this song in this type of tuning.  Ill
put the Db version if anyone wants it.  Its about 90% right although you can tell
there is maybe 2 guitars, and all I have is one.  So Have Fun! =D    -    Master-X

-= Intro =-
E----------------------------------------------------------------
B----------------------------------------------------------------
G--------------11----11----10------------------------------------
D----13----8----------------------8----6-------------------------
A----------------------------------------------------------------
D----------------------------------------------------------------

[ Tab from: http://www.guitartabs.cc/tabs/l/linkin_park/easier_to_run_tab_ver_3.html ]
-= Chorus =-
E----------------------------------------------------------------
B----------------------------------------------------------------
G-----8----------------------------------------------------------
D-----8----4----6----9-------------------------------------------
A-----6----4----6----9-------------------------------------------
D----------4----6----9-------------------------------------------


-= Verse =-
E----------------------------------------------------------------
B----------------------------------------------------------------
G--------------11----11----10------------------------------------
D----13----8----------------------8----6-------------------------
A----------------------------------------------------------------
D----------------------------------------------------------------


-= Bridge =-
E----------------------------------------------------------------
B----------------------------------------------------------------
G----------------------------------------------------------------
D----9----11----8----6----9----11----11--------------------------
A----9----11----8----6----9----11----11--------------------------
E----9----11----8----6----9----11----11--------------------------


Well thats about it, those are the main parts to the song!  Have Fun!
Comments