Linkin Park - Easier To Run Chords & Tabs

 

Easier To Run Chords & Tabs

Linkin Park Chords & Tabs

Version: 11 Type: Tab 0 ratings
1 star 2 stars 3 stars 4 stars 5 stars
comments

Easier To Run Tab

   
Band:Linkin park
Song:Easier To Run
Album: Meteora
Tabbed by: JuliusLT
Tuning:Db Ab Db Gb Bb Eb

99% accurate

Key:
* - Harmonic


Intro:(Same as verse) 4x

Chorus (Guitar 1 Mike)
Eb-----------------------------------------|  |----|
Bb-----------------------------------------|  |----|
Gb-----------------------------------------|2x|--9-|
Db-2-2-2----5-5-5----7-7-7----4-4-4--------|  |--x-|
Ab-2-2-2----3-3-3----5-5-5----2-2-2--------|  |--7-|
Db-2-2-2----5-5-5----7-7-7----4-4-4--------|  |----|

Chorus (Guitar 2 Brad)
Eb------------------------------------------------|
Bb------------------------------------------------|
Gb---9--9--9-----9--9--9-----9--9--9-----7--7--7--|2x
Db---x--x--x-----x--x--x-----x--x--x-----x--x--x--|
Ab---7--7--7-----7--7--7-----7--7--7-----5--5--5--|
Db------------------------------------------------|

 
Verse
Eb-----------------------------------------|
Bb-12*-----12*-----------------------------|
Gb-------------12*---12*-11----------------|9x 
Db----------------------------12*---7*-----|
Ab-----7*----------------------------------|
Db-----------------------------------------|

(You can play it without harmonic)
Eb-----------------------------------------|
Bb-12---12----------------10---------------|
Gb----9----12---12-11----------------------|9x 
Db--------------------12-------------------|
Ab-----------------------------------------|
Db-----------------------------------------|

Chorus (Guitar 1 Mike)
Eb-----------------------------------------|  |----|
Bb-----------------------------------------|  |----|
Gb-----------------------------------------|2x|--9-|
Db-2-2-2----5-5-5----7-7-7----4-4-4--------|  |--x-|
Ab-2-2-2----3-3-3----5-5-5----2-2-2--------|  |--7-|
Db-2-2-2----5-5-5----7-7-7----4-4-4--------|  |----|

 Or Guitar 1 Mike [Tuning:Eb Ab Db Gb Bb Eb]
Eb-----------------------------------------|
Bb-----------------------------------------|
Gb-----------------------------------------|
Db-2-2-2----5-5-5----7-7-7----4-4-4--------|
Ab-2-2-2----3-3-3----5-5-5----2-2-2--------|
Eb-0-0-0----3-3-3----5-5-5----2-2-2--------|

Chorus (Guitar 2 Brad)
Eb------------------------------------------------|
Bb------------------------------------------------|
Gb---9--9--9-----9--9--9-----9--9--9-----7--7--7--|
Db---x--x--x-----x--x--x-----x--x--x-----x--x--x--|
Ab---7--7--7-----7--7--7-----7--7--7-----5--5--5--|
Db------------------------------------------------|

Verse:(same as first)

[ Tab from: http://www.guitartabs.cc/tabs/l/linkin_park/easier_to_run_tab_ver_11.html ]
Bridge (Guitar 1 Mike)
Eb-----------------------------------------|
Bb-----------------------------------------|
Gb-----------------------------------------|
Db-5-5-5----7-7-7----2-2-2----4-4-4--------|
Ab-3-3-3----5-5-5----2-2-2----2-2-2--------|
Db-5-5-5----7-7-7----2-2-2----4-4-4--------|

Eb-----------------------------------------|
Bb-----------------------------------------|
Gb-----------------------------------------|
Db-5-5-5----7-7-7----7-7-7----7-7-7--------|
Ab-3-3-3----5-5-5----5-5-5----5-5-5--------|
Db-5-5-5----7-7-7----7-7-7----7-7-7--------|

Bridge (Guitar 2 Brad)
Eb------------------------------------------------|
Bb------------------------------------------------|
Gb---9--9--9-----9--9--9-----9--9--9-----7--7--7--|
Db---x--x--x-----x--x--x-----x--x--x-----x--x--x--|
Ab---7--7--7-----7--7--7-----7--7--7-----5--5--5--|
Db------------------------------------------------|

Eb------------------------------------------------|
Bb------------------------------------------------|
Gb---9--9--9-----9--9--9-----9--9--9-----9--9--9--|
Db---x--x--x-----x--x--x-----x--x--x-----x--x--x--|
Ab---7--7--7-----7--7--7-----7--7--7-----7--7--7--|
Db------------------------------------------------|

Chorus (Guitar 1 Mike)
Eb-----------------------------------------|
Bb-----------------------------------------|
Gb-----------------------------------------|
Db-2-2-2----5-5-5----7-7-7----4-4-4--------|3x
Ab-2-2-2----3-3-3----5-5-5----2-2-2--------|
Db-2-2-2----5-5-5----7-7-7----4-4-4--------|

Eb------------------------------------------------|
Bb------------------------------------------------|
Gb------------------------------------------------|
Db-2-2-2----5-5-5----7-7-7----4-4-4--4-4-4--4-4-4-|
Ab-2-2-2----3-3-3----5-5-5----2-2-2--2-2-2--2-2-2-|
Db-2-2-2----5-5-5----7-7-7----4-4-4--4-4-4--4-4-4-|

Chorus (Guitar 2 Brad)
Eb------------------------------------------------|
Bb------------------------------------------------|
Gb---9--9--9-----9--9--9-----9--9--9-----7--7--7--|3x
Db---x--x--x-----x--x--x-----x--x--x-----x--x--x--|
Ab---7--7--7-----7--7--7-----7--7--7-----5--5--5--|
Db------------------------------------------------|

Eb---------------------------------------------------------------------|
Bb---------------------------------------------------------------------|
Gb---9--9--9-----9--9--9-----9--9--9-----7--7--7---11-11-11--11-11-11--|
Db---x--x--x-----x--x--x-----x--x--x-----x--x--x---x--x--x---x--x--x---|
Ab---7--7--7-----7--7--7-----7--7--7-----5--5--5---9--9--9---9--9--9---|
Db---------------------------------------------------------------------|

The End :)
Eb--------|
Bb--7*-~~-|
Gb--7*-~~-|
Db--------|
Ab--------|
Db--------|

Please Rate it.
Comments