Linkin Park - Easier To Run Chords & Tabs

 

Easier To Run Chords & Tabs

Linkin Park Chords & Tabs

Version: 1 Type: Bass Tab 0 ratings
1 star 2 stars 3 stars 4 stars 5 stars
comments

Easier To Run Bass Tab

Artist : Linkin Park
Album  : Meteora
Song   : Easier to Run
Tuning : (From bottom to top)...G,D,A,D.


(Look at "Song Order" for haow many times to play the riffs.)


Verse 1     0:14
G|---------------------------------------------------------------|
D|---------------------------------------------------------------|
A|---0-2-5-2--0-3-6-1--------------------------------------------|
D|---------------------------------------------------------------|

Chorus      0:24
G|---------------------------------------------------------------|
D|---------------------------------------------------------------|
A|---6-6-6--2-2-2--4-4-4--1-1-1----------------------------------|
D|---------------------------------------------------------------|

Verse 2     0:46
G|---------------------------------------------------------------|
D|---------------------------------------------------------------|
A|---1-2-3--3-2-1-0----------------------------------------------|
D|---------------------------------------------------------------|
[ Tab from: http://www.guitartabs.cc/tabs/l/linkin_park/easier_to_run_btab.html ]
Verse 3     0:51
G|---------------------------------------------------------------|
D|---------------------------------------------------------------|
A|---4-1-2-3--3-2-1-0--------------------------------------------|
D|---------------------------------------------------------------|

Climax      2:18
G|---------------------------------------------------------------|
D|---------------------------------------------------------------|
A|---2-2-2--4-4-4--6-6-6--1-1-1--2-2-2--4-4-4--4-4-4--4-4-4------|
D|---------------------------------------------------------------|


_____________________________________________________________________________

Song Order :
   Verse 1   x2
   Chorus    x2
   Verse 2   x1
   Verse 3   x2
   Verse 1   x4
   Chorus    x2
   Verse 1   x4
   Verse 3   x4
   Climax    x1
   Chorus    x4

_____________________________________________________________________________
Well, that's all folks...REALLY EASY!!!
LINKIN PARK RULES!!!
Any questions, comments, concerns
     you can E-Mail me at DarkSparda7@yahoo.com
_____________________________________________________________________________
Comments