Linkin Park - Dont Stay Chords & Tabs

 

Dont Stay Chords & Tabs

Linkin Park Chords & Tabs

Version: 6 Type: Tab 0 ratings
1 star 2 stars 3 stars 4 stars 5 stars
comments

Dont Stay Tab

   
-----------------------------------------------------------------------------
			           Don't Stay
-----------------------------------------------------------------------------
Tabbed by: Anthony Boyer (lyingfromyou118)
Email: anthony11888@hotmail.com
AIM: lyingfromyou118

Hey guys, this is absolutely correct, any questions or comments, ask or i.m.
Tuning: B F# B E G# C#

C#|-------------------------------------------------|
G#|-------------------------------------------------|
E |-------------------------------------------------|     x2
B |-------------------------------------------------|
F#|-------------------------------------------------|
B |-12-12-12-12-12-12-12-12-12-12-12-12-12-12-12-12-|

Verse:

C#|-------------------------------------------------|
G#|-------------------------------------------------|
E |-------------------------------------------------|
B |-0-0-0-7-3-3-5-5-5-8-8-8-7-----------------------|
F#|-0-0-0-7-3-3-5-5-5-8-8-8-7-----------------------|
B |-0-0-0-7-3-3-5-5-5-8-8-8-7-----------------------|

Chorus:
[ Tab from: http://www.guitartabs.cc/tabs/l/linkin_park/dont_stay_tab_ver_6.html ]
C#|-------------------------------------------------|
G#|-------------------------------------------------|
E |-------------------------------------------------|
B |-0-0-0-0-7-8-10~-5-5-5-7-3-1-0~------------------|
F#|-0-0-0-0-7-8-10~-5-5-5-7-3-1-0~------------------|
B |-0-0-0-0-7-8-10~-5-5-5-7-3-1-0~------------------|

Bridge:

C#|-------------------------------------------------|
G#|-------------------------------------------------|
E |---------------5-5-5-5-5/8-----------------------| x7
B |-0-0-0-1--1-0--x-x-x-x-x-x-----------------------|
F#|-0-0-0-1--1-0--3-3-3-3-3/6-----------------------|
B |-0-0-0-1--1-0------------------------------------|

C#|----------------------------------------------------|
G#|----------------------------------------------------|
E |----------------------------------------------------|
B |-0-0-0-1--1-0-1-1-1--x-x-x--1-1-1-x-x-x-1-1-1-x-x-x-|
F#|-0-0-0-1--1-0-1-1-1--x-x-x--1-1-1-x-x-x-1-1-1-x-x-x-|
B |-0-0-0-1--1-0-1-1-1--x-x-x--1-1-1-x-x-x-1-1-1-x-x-x-|

C#|-------------------------------------------------|
G#|-------------------------------------------------|
E |-------------------------------------------------|
B |-0-1-1-1-1-1-1-1---------------------------------|
F#|-0-1-1-1-1-1-1-1---------------------------------|
B |-0-1-1-1-1-1-1-1---------------------------------|
Comments